>
 >
Meat - Better Than Nothing

Meat - Better Than Nothing Bass Tabs

Unsigned - Meat - Better Than Nothing chords, tabs, tablatures, lyrics

Guitar lessons | Add/correct | Request | Top 50 tabs Artists:  A B C D E F G H I J K L M N O P Q R S T U V W X Y Z 0-9

Meat - Better Than Nothing Bass Tabs – Unsigned

CD, Sheet music, Poster

Do you like Meat - Better Than Nothing? Share with your friends now
Bass Tabs
Meat
"Better than nothing"
music by Gilbert Lopez, Omar Garcia and Rudy Tamayo
Lyrics by Rudy Tamayo



Standard Dropped D-Tuning

		  Bass fill opens with drums
Intro		  (Often improvised)
G|---------------|--------------|
D|---------------|-3h5-3-3------|
A|------------3--|------5-5-4-3-|
D|--0-0-5h7-7----|--------------|


Main Verse Bass line/end riff
G|------------------------------|
D|------------------------------|
A|-------------3--3-3-3---------|
D|--0-0-0-5h7-7---------b5--b3--|


Chorus Riff 3x			  Chorus Pt. 2 1x
G|--------------------------------|----------------------------|
D|--------------------------------|----------------------------|
A|--------------------------------|----------------------------|
D|--0-0-0-7-7-7-0-3--3-3-3-3h5-3--|-0-0-0-7-7-7-0-3--3-3-3-8-7-|



Bridge Riff
G|---------------------------------------------------------|
D|---------------------------------------------------------|
A|---------------------------------------------------------|
D|-0-0-0-8p0-0-7p0-0-5p0-3p0-2p0-2-2-2-2h3-3-3--3-3-3-3h2--|



Part of insanity
G|-------------------------------|
D|-------------------------------|
A|-------------------------------|
D|--7p5-0-5p3-0-3p2-0-2h3-3p2-0--|



Lyrics:
(Verse 1)
Sitting on top of the world 
Looking down and seeing nothing
Walked away from this crash
Thinking everything was something
Then I realized what went wrong as I sat and wrote this song
As you sat and watched the whole thing fall apart and burn

(Chorus)
But it's all right! I'm all right!
It's all right! We're all right!
'cause something's better than nothing
When that nothing's better than something said
And nothing's better than something
When that something's bleeding nothing dead

(Verse 2)
Sit and wait my turn
waiting here for all or nothing
But never mind what they say
They don't stand for something
Then you realized what went wrong and refused to move along
As we sat and set the whole off to fall apart and burn

(Chorus)
But it's all right! I'm all right!
It's all right! We're all right!
'cause something's better than nothing
When that nothing's better than something said
And nothing's better than something
When that something's bleeding nothing dead

(Bridge)
No need to get upset
Act like we never met
Don't think I know it all
But you have to rise before you fall

(Verse 3)
Feeling self assured
Caution lights fall far from nothing
But can I make this whole thing work
Can I make it into something
That's when it all went wrong, and you refused this song
And we all just sat back to watch the whole thing fall apart and burn

(end)
***ting on the world!





Comments


Popular Unsigned tabs & chords
Jj - Center Grass Bass Tabs
R33b0rn - Love Bass Tabs
Stereo Ad - Alone Bass Tabs
Waiting For A Name Bass Tabs
All U Can Eat - Meat Pie Tabs
Catalyst - Hostile Nastalgia Tabs
Dirty-Nation - A Lesson In Rights Tabs
Dwain Fletcher - Lawless Tabs
Kkkl Tabs
Maleko - Untitled Tabs


Song lyrics



↑ Back to top | Tablatures and chords are parodies/interpretations of the original songs. You may use it for private study, scholarship, research or language learning purposes only
© 2014 AZChords.com Contact us | Privacy policy | DMCA | Add/correct tabs | Request tabs | Top 50 tabs