» » »

Unsigned, Meany - Start Over Again Tabs (ver.1)

Artists:  A B C D E F G H I J K L M N O P Q R S T U V W X Y Z # 

Meany - Start Over Again Tabs (ver.1)

Unsigned Tabs
 Rating:
4/5 (4 votes)
Meany - Start Over Again lessons Tabs too difficult? Try these video lessons and learn fast
1
                Intro:

x2

|-----------------------------------------------------------
|-----------------------------------------------------------
|----5------------------------------------------------------
|----5---------7---------2---------3------------------------
|----3---------7---------2---------3------------------------
|--------------5---------0---------1------------------------

x1

|-----------------------------------------------------------
|-----------------------------------------------------------
|----5------------------------------------------------------
|----5---------7---------2---------3----5--5----------------
|----3---------7---------2---------3----5--5----------------
|--------------5---------0---------1----3--3----------------

whilst playing this, this is played on bass:
x2

|-----------------------------------------------------------
|-----------------------------------------------------------
|-33333333--------------------------------------------------
|----------55555555-00000000-11111111-----------------------

x1

|-----------------------------------------------------------
|-----------------------------------------------------------
|-33333333--------------------------------------------------
|----------55555555-00000000-1111-3333----------------------

x2

|-----------------------------------------------------------
|-----------------------------------------------------------
|-55555555--------------------------------------------------
|-55555555--77777777--22222222--33333333--------------------
|-33333333--77777777--22222222--33333333--------------------
|-----------55555555--00000000--11111111--------------------

x1

|-----------------------------------------------------------
|-----------------------------------------------------------
|-55555555--------------------------------------------------
|-55555555--77777777--22222222--3333--5-5-------------------
|-33333333--77777777--22222222--3333--5-5-------------------
|-----------55555555--00000000--1111--3-3-------------------

Riff 1:

x1

|-----------------------------------------------------------
|-----------------------------------------------------------
|-----------------------------------------------------------
|---7--7--7--7--7--7--7--7--7--7--7--7---7---7---7---7------
|--------------------------------------4---4---5---5--------
|-5--5--5--5--4--4--4--4--0--0--0--0------------------------

x1

|-----------------------------------------------------------
|-----------------------------------------------------------
|-----------------------------------------------------------
|---7--7--7--7--7--7--7--7--7--7--7--7---7---7--------------
|--------------------------------------4---4---5------------
|-5--5--5--5--4--4--4--4--0--0--0--0------------------------

Riff 2:

x2

|-----------------------------------------------------------
|-----------------------------------------------------------
|-----------------------------------------------------------
|---7777--9999--11-11-11-11--12-----------------------------
|---7777--9999--11-11-11-11--12-----------------------------
|---5555--7777--9--9--9--9---10-----------------------------

verse:

x2

|-----------------------------------------------------------
|-----------------------------------------------------------
|-----------------------------------------------------------
|--77777777--99999999--66666666--77777777-------------------
|--77777777--99999999--66666666--77777777-------------------
|--55555555--77777777--44444444--55555555-------------------

x2

|-----------------------------------------------------------
|-----------------------------------------------------------
|-----------------------------------------------------------
|--99999999--11-11-11-11-11-11-11-11--88888888--99999999----
|--99999999--11-11-11-11-11-11-11-11--88888888--99999999----
|--77777777--9--9--9--9--9--9--9--9---66666666--77777777----

chorus:

x2

|-----------------------------------------------------------
|-----------------------------------------------------------
|-----------------------------------------------------------
|--99999999--77777777--55555555--77777777-------------------
|--99999999--77777777--55555555--77777777-------------------
|--77777770--55555550--33333330--55555550-------------------

Riff 1
verse
chorus
Riff 1
end on Riff 2 and let ring out
            
Submit corrections

comments powered by Disqus
↑ Back to top | Unsigned Tabs for Meany - Start Over Again. Lyrics for acoustic guitar and electric guitar. 1 Tablatures and chords are parodies/interpretations of the original songs. You may use it for private study, scholarship, research or language learning purposes only