» » »

Unsigned, Marrow - Deaths Touch Tabs (ver.1)

Artists:  A B C D E F G H I J K L M N O P Q R S T U V W X Y Z # 

Marrow - Deaths Touch Tabs (ver.1)

Unsigned Tabs
Rating:
0/5 (0 votes)
Marrow - Deaths Touch lessons Tabs too difficult? Try these video lessons and learn fast
                Hey if u want to kno me read my pro on mxtabs. Ok this is my band’s song it is a really cool song and u kno its right cause I made it!(this song its easy but long and to make it sound really wicked whenever you sustain, sustain heavy to make it sound cooler)

Key
~ = sustain, or wiggle as I call it
x = Repeat
p = palm
/ = slide
b = bend
t = Tremolo bar (when ever it has the t for tremolo bar its there for a reason if you could sustain that fast then it would be a ~ sign not a t sign so use the tremolo really hard and fast)
Normal tuning (e, B, G, D, A, E)

Intro 
e-------------------------------------------------------------------------------------------         
B------------------------------------------------------------------------------------------     
G------------------------------------------------------------------------------------------
D--------------------------9-8~-----------------------9-8~-----------------------9-15~
A-----7-6---7-6 ---7-6-----------7-6---7-6---7-6-----------7-6---7-6---7-6--------
E---0------0-----0--------------0------0-----0--------------0-----0------0-------------

Riff 1 pt.1
e----------------------------------------------------------------------------------------------
B----------------------------------------------------------------------------------------------
G----------------------------------------------------------------------------------------------
D----------------------------------------------------------------------------------------------
A----------------------------------------------------------------------------------------------
E----000-7-00-6-00-5-00-4~---000-7-00-6-00-5-00-4~---000-7-00-6-00-5-00-4~

Riff 1 pt.2
e---------------------------------------------------------
B---------------------------------------------------------
G---------------------------------------------------------
D---9------------------9-----------------9---------------
A---7----9-8-7-6~---7----9-8-7-6~---7----9-8-7-6~
E---------7-6-5-4~--------7-6-5-4~---------7-6-5-4~

Riff 2 pt.1
e-----------------------------------------------------------  x2
B----------------------------------------------------------
G----------------------------------------------------------
D---------2------2/3~------2--------2/1~---------------
A---------2------2/3~------2--------2/1~---------------
E----p00---p00------p00-----p00----------------------

Riff 2 pt.2
e-----------------------------------------------------------------     x2
B--------------------------12-11~---------------------11-12~
G----------------------------------------------------------------
D---------9-------9/10-------------------9------9/8------------
A---------7-------7/8--------------------7-------7/6------------
E----p00----p00-------------------p00----p00-----------------

Solo Intro
e------------------------------------------------------------------
B------------------------------------------------------------------
G---3—4—3----------------3—4—3-----------3—4—3----
D---0—0—0----------------0—0—0-----------0—0—0----
A---1—2—1—2-----------1—2—1—2-------1—2—1—2
E-----------------0------------------------0---------------------0

Solo
e----------------------------------------------------17-18t---18-17---------------------------------
B--------------------------------------------17-18------------------18-17---------------------------
G------------------------------------17-18---------------------------------18-17--------------------
D---------------------------17-18-------------------------------------------------18-17--------------
A-------------------17-18----------------------------------------------------------------18-17-------
E---1/17t—17-18------------------------------------------------------------------------------18-17~

e----------------------------------------------------------------------------------------------------------
B---1/13—13-12b-12-11b-11-10~------------------------------------------------------------------
G--------------------------------------------------12~-11~-10~-9~----------12~-11~-10~-9~-----
D---------------------------------------------------------------------------------------------------------
A---------------------------------------------------------------------------------------------------------
E-----------------------------------------p000--------------------------p000--------------------------

e----14h15-15h16-16h17--------------------------------------------------- *NOTE*move your 
B----------------------------14h15-15h16-16h17-------------------------     pick up and down
G--------------------------------------------------14h15-15h16-16h17t        really fast to sound
D---------------------------------------------------------------------               faster than you really
A---------------------------------------------------------------------              are
E----------------------------------------------------------------------


e-------------------------------------------/-------/-----------------
B----11h12-10h11-9h10-8h9—9b-8~/9b-8~/9b-8t----------
G------------------------------------------/-------/-------------------
D------------------------------------------/-------/------------------
A------------------------------------------/-------/-------------------
E------------------------------------------/-------/-------------------

After the solo just repeat the song from riff 1 pt.1 and stop it at Riff 2 pt.2
Enjoy this kick ass song
            
Submit corrections

comments powered by Disqus
↑ Back to top | Unsigned Tabs for Marrow - Deaths Touch. Lyrics for acoustic guitar and electric guitar. Tablatures and chords are parodies/interpretations of the original songs. You may use it for private study, scholarship, research or language learning purposes only