» » »

Unsigned, Mark-The Wrestling Song Tabs (ver.1)

Artists:  A B C D E F G H I J K L M N O P Q R S T U V W X Y Z # 

Mark-The Wrestling Song Tabs (ver.1)

Unsigned Tabs
 Rating:
4/5 (4 votes)
Mark-The Wrestling Song lessons Tabs too difficult? Try these video lessons and learn fast
1
                Intro/Verse  x6                                                
|-----------------------------------------|
|-----------------------------------------|
|-----------------------------------------|
|-2-2-2-2-2-2-2-2-2-2-4-4-4-4-4-4-4-4-4-4-|
|-0-0-0-0-0-0-0-0-0-0-2-2-2-2-2-2-2-2-2-2-|
|-0-0-0-0-0-0-0-0-0-0-0-0-0-0-0-0-0-0-0-0-|

  x4
|-----------------------------------------|                                         |-----------------------------------------|		
|-----------------------------------------|                		        |-6-6-6-6-6-6-6-6-6-6-4-4-4-4-4-4-4-4-4-4-| 
|-4-4-4-4-4-4-4-4-4-4-2-2-2-2-2-2-2-2-2-2-|		
|-0-0-0-0-0-0-0-0-0-0-0-0-0-0-0-0-0-0-0-0-|		

  x4
|-----------------------------------------|
|-----------------------------------------| 
|-----------------------------------------|
|-2-2-2-2-2-2-2-2-2-2-4-4-4-4-4-4-4-4-4-4-|
|-0-0-0-0-0-0-0-0-0-0-2-2-2-2-2-2-2-2-2-2-|                                         |-0-0-0-0-0-0-0-0-0-0-0-0-0-0-0-0-0-0-0-0-|
  
  x2                                                                                                                                                                                                                  
|----------------------------------------|                                          
|----------------------------------------|                                          
|-----------------------------------------|                      
|-6-6-6-6-6-6-6-6-6-6-4-4-4-4-4-4-4-4-4-4-|                                       
|-4-4-4-4-4-4-4-4-4-4-2-2-2-2-2-2-2-2-2-2-|	                                |-0-0-0-0-0-0-0-0-0-0-0-0-0-0-0-0-0-0-0-0-|                                         

|-----------------------|
|-----------------------|
|-----------------------|
|-7-7-7-7-7-7-7-7-7-7-2-|      LET  RING
|-5-5-5-5-5-5-5-5-5-5-0-|    (2 1/2 seconds)
|-0-0-0-0-0-0-0-0-0-0-0-|




                                                                                   
|-----------------------------------------|		
|-----------------------------------------|
 		                    
|-----------------------------------------|		
|-6-6-6-6-6-6-6-6-6-6-4-4-4-4-4-4-4-4-4-4-|            
|-4-4-4-4-4-4-4-4-4-4-2-2-2-2-2-2-2-2-2-2-|		
|-0-0-0-0-0-0-0-0-0-0-0-0-0-0-0-0-0-0-0-0-|		

  x2
|-----------------------------------------| 
|-----------------------------------------| 
|-----------------------------------------|
|-2-2-2-2-2-2-2-2-2-2-4-4-4-4-4-4-4-4-4-4-|
|-0-0-0-0-0-0-0-0-0-0-2-2-2-2-2-2-2-2-2-2-|
|-0-0-0-0-0-0-0-0-0-0-0-0-0-0-0-0-0-0-0-0-|

 x2
|-----------------------------------------|                 
|-----------------------------------------|                                         |-----------------------------------------|                      
|-6-6-6-6-6-6-6-6-6-6-4-4-4-4-4-4-4-4-4-4-|                                       
|-4-4-4-4-4-4-4-4-4-4-2-2-2-2-2-2-2-2-2-2-|	                                |-0-0-0-0-0-0-0-0-0-0-0-0-0-0-0-0-0-0-0-0-| 

  x2
|-----------------------------------------|
|-----------------------------------------|
|-----------------------------------------|
|-6-6-6-6-6-7-7-7-7-7-9-9-9-9-9-9-9-9-9-9-| 
|-4-4-4-4-4-5-5-5-5-5-7-7-7-7-7-7-7-7-7-7-|
|-0-0-0-0-0-0-0-0-0-0-0-0-0-0-0-0-0-0-0-0-|



|-------------------------------------------------------------|
|-------------------------------------------------------------|                     |-------------------------------------------------------------|
|-6-6-6-6-6-7-7-7-7-7-9-9-9-9-9-7-7-7-7-7-6-6-6-6-6-7-7-7-7-7-|
|-4-4-4-4-4-5-5-5-5-5-7-7-7-7-7-5-5-5-5-5-4-4-4-4-4-5-5-5-5-5-|
|-0-0-0-0-0-0-0-0-0-0-0-0-0-0-0-0-0-0-0-0-0-0-0-0-0-0-0-0-0-0-|           





  x2
|-----------------------------------------|
|-----------------------------------------|
|-----------------------------------------|             
|-2-2-2-2-2-2-2-2-2-2-4-4-4-4-4-4-4-4-4-4-| 
|-0-0-0-0-0-0-0-0-0-0-2-2-2-2-2-2-2-2-2-2-|		 
|-0-0-0-0-0-0-0-0-0-0-0-0-0-0-0-0-0-0-0-0-|             

|-----------------------------------------|
|-----------------------------------------|
|-----------------------------------------| 
|-0-0-0-0-0-0-0-0-0-0-2-2-2-2-2-2-2-2-2-2-|           
|-----------------------------------------|           
p.m.......................................|




  x2
|-----------------------------------------|
|-----------------------------------------|
|-----------------------------------------|
|-----------------------------------------|
|-4-4-4-4-4-4-4-4-4-4-2-2-2-2-2-2-2-2-2-2-|
|-----------------------------------------|
p.m.......................................|

  x4
|---------------------------------|
|---------------------------------|
|---------------------------------|
|---------------------------------|
|-0-0-0-0-0-0-0-0-2-2-2-2-2-2-2-2-|
|---------------------------------|
p.m...............................|

|---------------------------------------------------|
|---------------------------------------------------|
|---------------------------------------------------|
|---------------------------------------------------|
|-4-4-4-4-4-4-4-4-2-2-2-2-2-2-2-2-4-4-4-4-4-4-4-4-0-|
|---------------------------------------------------|
p.m.................................................|
            
Submit corrections

comments powered by Disqus
↑ Back to top | Unsigned Tabs for Mark-The Wrestling Song. Lyrics for acoustic guitar and electric guitar. 1 Tablatures and chords are parodies/interpretations of the original songs. You may use it for private study, scholarship, research or language learning purposes only