» » »

Unsigned, Man With Van - Anagram Of I Ex Pot Nerd Bass tabs (ver.1)

Artists:  A B C D E F G H I J K L M N O P Q R S T U V W X Y Z # 

Man With Van - Anagram Of I Ex Pot Nerd Bass tabs (ver.1)

Unsigned Tabs
 Rating:
4/5 (4 votes)
Man With Van - Anagram Of I Ex Pot Nerd lessons Tabs too difficult? Try these video lessons and learn fast
                Play some of these...
   
G-|--------------------|--------------------|
D-|--------------------|--------------------|
A-|-----------4--4--4-4|-7--7--7-7-6--6--6-6|
E-|-5--5--5-5----------|--------------------|

G-|--------------------|--------------------|
D-|--------------------|------------6-7-6-7-|
A-|-----------4--4--4-4|-7--7--7-7----------|
E-|-5--5--5-5----------|--------------------|

G-|--------------------|
D-|--------------------|
A-|------5-5-------7-7-|
E-|-5-5-------7-7------|

G-|--------------------|--------------------|
D-|--------------------|--------------------|
A-|-----------5--5--5-5|-----------7--7--7-7|
E-|-5--5--5-5----------|-7--7--7-7----------|
            
Submit corrections

comments powered by Disqus
↑ Back to top | Unsigned Bass for Man With Van - Anagram Of I Ex Pot Nerd. Lyrics for acoustic guitar and electric guitar. Tablatures and chords are parodies/interpretations of the original songs. You may use it for private study, scholarship, research or language learning purposes only