» » »

Unsigned, Makeshift - Spiral Bass tabs (ver.1)

Artists:  A B C D E F G H I J K L M N O P Q R S T U V W X Y Z # 

Makeshift - Spiral Bass tabs (ver.1)

Unsigned Tabs
Rating:
0/5 (0 votes)
Makeshift - Spiral  lessons Tabs too difficult? Try these video lessons and learn fast
                (1)
For this song the guitarist is tuned down (D tuned) but the bass doesn't need to be.

The guitarist plays through the cycle twice then the drums twice and then the bass line 
starts for another two cycles.

Intro 
G------------------------------------------------------------------------------------|
D---------------------------------------------------------------------(17)-(17)-(17)-|
A---2-2-2-2-2-2-2-2------------------------------------------------------------------| x2
E-------------------0-0-0-0-0-0-0-0-3-3-3-3-3-3-3-3-3-3-(15)-(15)-(15)---------------|



Verse
G------------------------------------------------------------------------------------|
D------------------------------------------------------------------------------------|
A---2--------------0-----------------------------------------------------------------| x2 let each not ring for 2 beats
E------------------------------------------3-----------------------------------------|




Chorus
G------------------------------------------------------------------------------------|
D------------------------------------------------------------------------------------|
A---------------3--3--3333-2222--------------55555-3333333333------------------------| x1
E---0--0--0000-------------------0--0--0000------------------------------------------|




Outro
G------------------------------------------------------------------------------------
D---------------------------------------------------------------------(17)-(17)-(17)-
A---2-2-2-2-2-2-2-2------------------------------------------------------------------  x2
E-------------------0-0-0-0-0-0-0-0-3-3-3-3-3-3-3-3-3-3-(15)-(15)-(15)---------------


G--------------------------|
D--------------------------|
A--2-------0---------------| x1 let each not ring for 2 beats
E-------------------3------|




Order:
Intro  x6
Verse  x2
Chorus x1
Verse  x2
Chorus x1
Outro  x1
            
Submit corrections

comments powered by Disqus
↑ Back to top | Unsigned Bass for Makeshift - Spiral. Lyrics for acoustic guitar and electric guitar. Tablatures and chords are parodies/interpretations of the original songs. You may use it for private study, scholarship, research or language learning purposes only