» » »

Unsigned, Makeshift - Spiral Tabs (ver.1)

Artists:  A B C D E F G H I J K L M N O P Q R S T U V W X Y Z # 

Makeshift - Spiral Tabs (ver.1)

Unsigned Tabs
 Rating:
4/5 (4 votes)
Makeshift - Spiral lessons Tabs too difficult? Try these video lessons and learn fast
                Tuning: Drop D

Intro: clean  
e|--------------------------------------------------------------------|
B|--------------------------------------------------------------------|
G|--------------------------------------------------------------------|
D|-----5-------5------5-------5-----------------------7-------7-------|x6
A|-2-2---2-2-2---2-00---0-0-0---0-----5-------5-----------------------|
D|--------------------------------5-5---5-5-5---5-5-5---5-5-5---5-----|


Verse: distorted palm muted
e|-------------------|
B|-------------------|
G|-------------------|
D|-5----5----5----7--|x2
A|-2----0----5----5--|
D|-----------5----5--|


Chorus:
e|-------------------------------|
B|-------------------------------|
G|----5--5--5-------7--5--5------|
D|-2--5--5--5----2--7--5--5------|x1
A|-2--3--2--2----2--5--3--3------|
D|-2-------------2---------------|


Outro
e|--------------------------------------------------------------------|   
B|--------------------------------------------------------------------|
G|--------------------------------------------------------------------|
D|-----5-------5------5-------5-----------------------7-------7-------|x2
A|-2-2---2-2-2---2-00---0-0-0---0-----5-------5-----------------------|
D|--------------------------------5-5---5-5-5---5-5-5---5-5-5---5-----|

e|-----------|
B|-----------|
G|-----------|
D|-5---------|
A|-2~--------|
D|-----------|   



Order:
Intro x6
Verse x2
Chorus x1
Verse x2
Chorus x1
Outro x1
            
Submit corrections

comments powered by Disqus
↑ Back to top | Unsigned Tabs for Makeshift - Spiral. Lyrics for acoustic guitar and electric guitar. Tablatures and chords are parodies/interpretations of the original songs. You may use it for private study, scholarship, research or language learning purposes only