» » »

Unsigned, Lsd Lucy - Under A Drain Pipe Bass tabs (ver.1)

Artists:  A B C D E F G H I J K L M N O P Q R S T U V W X Y Z # 

Lsd Lucy - Under A Drain Pipe Bass tabs (ver.1)

Unsigned Tabs
 Rating:
4/5 (4 votes)
Lsd Lucy - Under A Drain Pipe lessons Tabs too difficult? Try these video lessons and learn fast
                Tuning: Standard (E A D G)

INTRO 1 

G|-------------------------------------------------------------||
D|-------------------------------------------------------------||
A|-77777777-77777777-77777777-777------------------------------||
E|-------------------------------------------------------------||

INTRO 2

G|-9--------9--------9-11---------11-9--------9-11-------------||
D|---11-9-8---11-9-----------9-11------8-9-11------------------||
A|-----------------9-------9-----------------------------------||
E|-------------------------------------------------------------||

G|-------------------------------------------------------------||
D|-------------------------------------------------------------||
A|-77777777-77777777-77777777-77777777-------------------------||
E|-------------------------------------------------------------||

VERSE

G|-9--------9--------9-11--7-------7-------7-9-----------------||
D|---10-9-7---10-9-7---------8-7-5---8-7-5---------------------||
A|-------------------------------------------------------------||
E|-------------------------------------------------------------||

G|-5-------5-------5-6--4-------4-------4-6--------------------||
D|---7-5-4---7-5-4--------5-4-2---5-4-2------------------------||
A|-------------------------------------------------------------||
E|-------------------------------------------------------------||

CHORUS

G|----11-11-------------------------9-9------------------------||
D|---------(9-9-11-11)----X2--------------(7-7-9-9)----X2------||
A|-9-9--------------------------7-7----------------------------||
E|-------------------------------------------------------------||

G|-----7-7--------------------------6-6------------------------||
D|---------(5-5-7-7)------X2--------------(4-4-6-6)----X2------||
A|-5-5--------------------------4-4----------------------------||
E|-------------------------------------------------------------||

INTERLUDES

G|-------------------------------------------------------------||
D|-------------------------------------------------------------||
A|-77777777-77777777-77777777-77777777-------------------------||
E|-------------------------------------------------------------||

G|-9--------9--------9-11---------11-9--------9-11-------------||
D|---11-9-8---11-9-----------9-11------8-9-11------------------||
A|-----------------9-------9-----------------------------------||
E|-------------------------------------------------------------||

SOLO

G|-------------------------------------------------------------||
D|-------------------------------------------------------------||
A|-99999999-77777777-55555555-44444444-------------------------||
E|-------------------------------------------------------------||

OUTRO

G|-------------------------------------------------------------||
D|-------------------------------------------------------------||
A|-7777----------------7777-----------9~-7-9~------------------||
E|------9999-7777-6666------9999-7777--------------------------||
            
Submit corrections

comments powered by Disqus
↑ Back to top | Unsigned Bass for Lsd Lucy - Under A Drain Pipe. Lyrics for acoustic guitar and electric guitar. Tablatures and chords are parodies/interpretations of the original songs. You may use it for private study, scholarship, research or language learning purposes only