>
 >
Lsd Lucy - The Final Beginning

Lsd Lucy - The Final Beginning Bass Tabs

Unsigned - Lsd Lucy - The Final Beginning chords, tabs, tablatures, lyrics

Guitar lessons | Add/correct | Request | Top 50 tabs Artists:  A B C D E F G H I J K L M N O P Q R S T U V W X Y Z 0-9

Lsd Lucy - The Final Beginning Bass Tabs – Unsigned

CD, Sheet music, Poster

Do you like Lsd Lucy - The Final Beginning? Share with your friends now
Bass Tabs
Tuning: Standard (E A D G)



INTRO + FIRST 2 VERSES

G|--------------------------------------------------||
D|---0230-23-0-0230-232-----------------------------||
A|-0------------------------------------------------||
E|--------------------------------------------------||

G|--------------------------------------------------||
D|---0230-23-0-0230-232-----------------------------||
A|-0------------------------------------------------||
E|--------------------------------------------------||

G|--------------------------------------------------||
D|---0230-23-0-0230-232-----------------------------||
A|-3------------------------------------------------||
E|--------------------------------------------------||

G|--------------------------------------------------||
D|---0230-23-0-0230-232-----------------------------||
A|--------------------------------------------------||
E|-0------------------------------------------------||

AFTER VERSE 2.2

G|--------------------------------------------------||
D|--------------------------------------------------||
A|-7888-7888-8889-8889-9101010-9101010--------------|| 
E|--------------------------------------------------||

G|--------------------------------------------------||
D|--------------------------------------------------||
A|-10111111-10111111-11121212-12131313--------------|| 
E|--------------------------------------------------||

AFTER VERSE 2.2

G|--------------------------------------------------||
D|--------------------------------------------------||
A|-121414-1214141414--121414-1214141414-------------||
E|--------------------------------------------------||

G|--------------------------------------------------||
D|--------------------------------------------------||
A|-022-02222--022-02222-----------------------------|| x4
E|--------------------------------------------------||

(REST FOR 8 BARS)

G|--------------------------------------------------||
D|-----------------------------1214-----------------||
A|-121414-1214141414-1214-1214------1214------------|| x8
E|---------------------------------------1214-------||

PRE VERSE/VERSE

G|--------------------------------------------------||
D|--------------------------------------------------||
A|-1212121414141414---------------------------------||
E|-------------------1212121414141414---------------||

G|--------------------------------------------------||
D|-1212121414141414---------------------------------||
A|-------------------1212121414141414---------------|| x7
E|--------------------------------------------------||

VERSE 4

G|-22222222-22222222-55555555-99999999--------------||
D|--------------------------------------------------||
A|--------------------------------------------------||
E|--------------------------------------------------||

OUTRO
E|--------------------------------------------------||
D|--------------------------------------------------||
A|--------------------------------------------------||
E|-11111112--11111112--11111112--11111112-----------||

G|--------------------------------------------------||
D|--------------------------------------------------||
A|--------------------------------------------------||
E|-11111222--11111222--11111222--11111222-----------||

G|--------------------------------------------------||
D|--------------------------------------------------||
A|--------------------------------------------------||
E|-1-2-1-2-1-2-1-2--1-2-1-2-1-2-1-2--1--------------||





Comments


Popular Unsigned tabs & chords
Blueish Riff Bass Tabs
Comet People To You - My Favourite Kind Bass Tabs
Cryin Froot-Juice - Untitled Bass Tabs
The Death Of Gwen Stacy-Maxgetsinvisible Bass Tabs
Unnamed - Alone Bass Tabs
Alloftheabove - Our Friend Jim Tabs
Arbol - Tabs
Dropouts- This Is How I Feel Tabs
Gordo Donoso-Pepe Mar Tabs
Hindered Youths - Four Leaf Clover Tabs


Song lyrics



↑ Back to top | Tablatures and chords are parodies/interpretations of the original songs. You may use it for private study, scholarship, research or language learning purposes only
© 2014 AZChords.com Contact us | Privacy policy | DMCA | Add/correct tabs | Request tabs | Top 50 tabs