» » »

Unsigned, Lost Youth - Tequilla Sunrise Bass tabs (ver.1)

Artists:  A B C D E F G H I J K L M N O P Q R S T U V W X Y Z # 

Lost Youth - Tequilla Sunrise Bass tabs (ver.1)

Unsigned Tabs
 Rating:
4/5 (4 votes)
Lost Youth - Tequilla Sunrise lessons Tabs too difficult? Try these video lessons and learn fast
1
                A boss little bass tune. Mr McNulty and Prescott knew what they were doing here

Tuning Standard (E,A,D,G)
Intro
G - - - - - - - - - - - - - - - - - - -
D - - - - - - - - - - - - - - - - - - -
A-12/-4--4---4---4---4--3--3---3---6--4
E - ---4---4---4---4-----3---3---3------4
Verse
G - - - - - - - - - - - - - - - - - - -
D - - - - - - - - - - - - - - - - - - -
A -4--4---4---4---4--3--3---3---6--4 -    (x5)
E --4---4---4---4-----3---3---3------4 
Chorous
G --------------------         -----------------------
D --------------------    (x3) -----------------------
A --------------------         ------------------------12/ 
E -2-2-2-2-2-2-2-4-5-7         7-7-7-5-5-4-7-7-7-5-5-4

Verse
Chorous
Verse
Chorous

A very easy song to learn and an even better song to play.
            
Submit corrections

comments powered by Disqus
↑ Back to top | Unsigned Bass for Lost Youth - Tequilla Sunrise. Lyrics for acoustic guitar and electric guitar. 1 Tablatures and chords are parodies/interpretations of the original songs. You may use it for private study, scholarship, research or language learning purposes only