» » »

Unsigned, Losers Inc. - First In Last Tabs (ver.1)

Artists:  A B C D E F G H I J K L M N O P Q R S T U V W X Y Z # 

Losers Inc. - First In Last Tabs (ver.1)

Unsigned Tabs
 Rating:
4/5 (4 votes)
Losers Inc. - First In Last lessons Tabs too difficult? Try these video lessons and learn fast
                FIRST IN LAST-guitar tab

repeat song X2
Intro X2 (muted)
E----------------------------------------------------------------|
B----------------------------------------------------------------|
G----------------------------------------------------------------|
D-----2-3--2----2-3-2----0-3-2-0-----------------------------|
A--3-3-3-3--0-0-0-0-------------------------------------------|
E-----------------------3-3-3------1-1-0-0-1-1-3-3-----------|

 Verse X4 
E--------------------------------------------------------------------------|
B--------------------------------------------------------------------------|
G---x-x-5-x---5--x-x-2-x---2-------------------------------------------|
D---x-x-5-x--5---x-x-2-x--2---x-x-5-x---5------------x-x-3-x---3----|
A---x-x-3-x-3----x-x-0-x-0----x-x-5-x--5-------------x-x-3-x--3-----|
E--------------------------------x-x-3-x-3--------------x-x-1-x-1------|

Chorus X2
E----------------------------------------------------------------|
B----------------------------------------------------------------|
G---5-5-5-5-5-5-5-5-2-2-2-2-2-2-2-2-----------------------|
D---5-5-5-5-5-5-5-5-2-2-2-2-2-2-2-2-5-5-5-5-5-5-5-5----|
A---3-3-3-3-3-3-3-3-0-0-0-0-0-0-0-0-5-5-5-5-5-5-5-5----|
E-----------------------------------------3-3-3-3-3-3-3-3----|

Verse X4 
E--------------------------------------------------------------------------|
B--------------------------------------------------------------------------|
G---x-x-5-x---5--x-x-2-x---2-------------------------------------------|
D---x-x-5-x--5---x-x-2-x--2---x-x-5-x---5------------x-x-3-x---3----|
A---x-x-3-x-3----x-x-0-x-0----x-x-5-x--5-------------x-x-3-x--3-----|
E--------------------------------x-x-3-x-3--------------x-x-1-x-1------|

Chorus X2
E----------------------------------------------------------------|
B----------------------------------------------------------------|
G---5-5-5-5-5-5-5-5-2-2-2-2-2-2-2-2-----------------------|
D---5-5-5-5-5-5-5-5-2-2-2-2-2-2-2-2-5-5-5-5-5-5-5-5----|
A---3-3-3-3-3-3-3-3-0-0-0-0-0-0-0-0-5-5-5-5-5-5-5-5----|
E-----------------------------------------3-3-3-3-3-3-3-3----|

Bass Solo

Outro X1
E----------------------------------------------------------------|
B----------------------------------------------------------------|
G----------------------------------------------------------------|
D-----2-3--2----2-3-2----0-3-2-0-----------------------------|
A--3-3-3-3--0-0-0-0-------------------------------------------|
E-----------------------3-3-3------1-1-0-0-1-1-3-3~~~~~~|
            
Submit corrections

comments powered by Disqus
↑ Back to top | Unsigned Tabs for Losers Inc. - First In Last. Lyrics for acoustic guitar and electric guitar. Tablatures and chords are parodies/interpretations of the original songs. You may use it for private study, scholarship, research or language learning purposes only