» » »

Unsigned, Loozer - Absent Minded Girl Tabs (ver.2)

Artists:  A B C D E F G H I J K L M N O P Q R S T U V W X Y Z # 

Loozer - Absent Minded Girl Tabs (ver.2)

Unsigned Tabs
 Rating:
4/5 (4 votes)
Loozer - Absent Minded Girl lessons Tabs too difficult? Try these video lessons and learn fast
1
                Verse (Heavy Distortion Througout Song)
e|--------------------------------------------------------------------------------------------------------------|
B|--------------------------------------------------------------------------------------------------------------|
G|--------------------------------------------------------------------------------------------------------------|
D|9--9--9--9--9--9--9---9--7--7--7--7--7-7--7--5--5--5--5--5--5--5--5--2--2--2--2--2--2--2-2-----| 
A|9--9--9--9--9--9--9---9--7--7--7--7--7-7--7--5--5--5--5--5--5--5--5--2--2--2--2--2--2--2-2------| 
E|7--7--7--7--7--7--7--7--5--5--5--5--5--5--5--3--3--3--3--3--3--3--3--0--0--0--0--0--0-0-0-------|       
Chorus

E|-------------------------------------------------------------------|
B|-------------------------------------------------------------------|
G|---------------------------------5-5-5-5-5-5--2-2-2-2-2-2----|
D|4-4-4-4-4-4--2-2-2-2-2-2--5-5-5-5-5-5--2-2-2-2-2-2-----|
A|4-4-4-4-4-4--2-2-2-2-2-2--3-3-3-3-3-3--0-0-0-0-0-0-----|
E|2-2-2-2-2-2--0-0-0-0-0-0-------------------------------------|

Verse

Chorus

Outro
E|-----------------------------------------------------------------------|
B|-----------------------------------------------------------------------|
G|4-4-4-4-4-4-------------------2-2-2-2-2-2-----------------------|
D|4-4-4-4-4-4--5-5-5-5-5-5--2-2-2-2-2-2--2--2-2-2-2-2-------|
A|2-2-2-2-2-2--5-5-5-5-5-5-0-0-0-0-0-0-2--2-2-2-2-2---------|		
E|----------------3-3-3-3-3-3------------------0-0-0-0-0-0--------|                            

Then Play Chorus riffs 2x’s
            
Submit corrections

comments powered by Disqus
↑ Back to top | Unsigned Tabs for Loozer - Absent Minded Girl. Lyrics for acoustic guitar and electric guitar. 1 Tablatures and chords are parodies/interpretations of the original songs. You may use it for private study, scholarship, research or language learning purposes only