» » »

Unsigned, Loozer - Absent Minded Girl Tabs (ver.1)

Artists:  A B C D E F G H I J K L M N O P Q R S T U V W X Y Z # 

Loozer - Absent Minded Girl Tabs (ver.1)

Unsigned Tabs
 Rating:
4/5 (4 votes)
Loozer - Absent Minded Girl lessons Tabs too difficult? Try these video lessons and learn fast
                copywrite @ 2001 Loozer
Intro
pm....     .......       .....      ......      .....      ......      .......     .......
e|----------------------------------------------------------------------------------------------------------|
b|----------------------------------------------------------------------------------------------------------|
g|-9-9-9--9-9-9---------------------------2-2-2--2-2-2-----3-3-3--3-3-3------------------------|
d|-9-9-9--9-9-9-----6-6-6--6-6-6-----2-2-2--2-2-2-----3-3-3--3-3-3------------------------|
a|-7-7-7--7-7-7-----6-6-6--6-6-6-----0-0-0--0-0-0-----1-1-1--1-1-1------------------------|
E|----------------------4-4-4--4-4-4-------------------------------------------------------------------|
Verse
pm.........................................................................................................
e|----------------------------------------------------------------------------------------------------------|
b|----------------------------------------------------------------------------------------------------------|
g|9-9-9-9-9-9-9-9-----------------------2-2-2-2-2-2-2-2-3-3-3-3-3-3-3-3-------------------|
d|9-9-9-9-9-9-9-9-6-6-6-6-6-6-6-6-2-2-2-2-2-2-2-2-3-3-3-3-3-3-3-3-------------------|
a|7-7-7-7-7-7-7-7-6-6-6-6-6-6-6-6-0-0-0-0-0-0-0-0-1-1-1-1-1-1-1-1-------------------|
E|---------------------4-4-4-4-4-4-4-4---------------------------------------------------------------|

Intro

chorus
(like verse but no palm mute)

bridge
e|------------------------------------------------------------------------------------------------------------------------------------
b|------------------------------------------------------------------------------------------------------------------------------------
g|9-9--9-9--9-9--9-9---------------------------------------------------------2-2--2-2--2-2--2-2---------------3-3--3-3--
d|9-9--9-9--9-9--9-9(drum roll)--6-6--6-6--6-6--6-6(drum roll)--2-2--2-2--2-2--2-2-(drum roll)3-3--3-3--
a|7-7--7-7--7-7--7-7----------------6-6--6-6--6-6--6-6-----------------0-0--0-0--0-0--0-0---------------1-1--1-1--
E|---------------------------------------4-4--4-4--4-4--4-4----------------------------------------------------------------------
Bridge
(continued)
e|-----------------|				
b|-----------------|
g|3-3--3-3------|				
d|3-3--3-3------|
a|1-1--1-1------|
E|----------------|

intro x2
verse x4
intro x2
chorus x4
bridge  x2
chorus x4
            
Submit corrections

comments powered by Disqus
↑ Back to top | Unsigned Tabs for Loozer - Absent Minded Girl. Lyrics for acoustic guitar and electric guitar. Tablatures and chords are parodies/interpretations of the original songs. You may use it for private study, scholarship, research or language learning purposes only