» » »

Look Behind You-Pamala Never Liked Tommy Bass tabs (ver.1)

Artists:  A B C D E F G H I J K L M N O P Q R S T U V W X Y Z # 

Look Behind You-Pamala Never Liked Tommy Bass tabs (ver.1)

Unsigned
Rating:
0/5 (0 votes)

Tabs too difficult? Try these video lessons and learn fast.
                Verse
G-----------------------------------------------
D-----------------------------------------------
A-----------------------------------------------
E---000000000------999999999------5-5-5-4-3-5---
(Play this 6 times then play this)

2nd part of verse
G-----------------------------------------------
D-----------------------------------------------
A---------------------------------------------6-
E------888888--4--4--3--4--3--44---33--4-5-60---

Chorus
G-----------------------------------------------
D-----------------------------------------------
A-----------------------------------------------
E---0--0--0--0--687--0-0-0-0-687--000000--6h7h8h

Bridge
G-----------------------------------------------
D-----------------------------------------------
A-----------------------------------------------
E--7--6--5--4--3--2--1--0--1--2--3--4--5--6--777
            
Tabs too difficult? Try these video lessons and learn fast.


comments powered by Disqus
↑ Back to top | Tablatures and chords are parodies/interpretations of the original songs. You may use it for private study, scholarship, research or language learning purposes only