» » »

Long Walk Home- All The Attention... Tabs (ver.1)

Artists:  A B C D E F G H I J K L M N O P Q R S T U V W X Y Z # 

Long Walk Home- All The Attention... Tabs (ver.1)

Unsigned
Rating:
0/5 (0 votes)

Hard to play? Try these video lessons and learn fast.
                “all the attention you need”

intro pt. 1

e------------------------------------------------------------------------------------
b------------------------------------------------------------------------------------ 
g--------------------------------------------0---------------------------------------
d--6--6------------3-----6\5--5--3---5---5------------6--------6--------6------------ 
a--6------6--------3--3----------------3---------3/4--4--4-4------4-4------4---44----
d--6----------6\3--3-----------------------------------------------------------------

intro pt. 2

e------------------------------------------------------------------------------------ 
b------------------------------------------------------------------------------------ 
g------------------------------------------------------------------------------------
d--6---------------3---------------5---------------6---------------------------------  
a--6--about 11x’s--3--about 11x’s--3--about 11x’s--4--about 11x’s--------------------
d--6---------------3-----------------------------------------------------------------


verse pt. 1

e------------------------------------------------------------------------------------
b------------------------------------------------------------------------------------ 
g------------------------------------------------------------------------------------ 
d--6---------------3---------------5---------------6---------------------------------   
a--6--about 11x’s--3--about 11x’s--3--about 11x’s--4--about 11x’s--------------------
d--6---------------3-----------------------------------------------------------------

verse pt. 2

e------------------------------------------------------------------------------------  
b------------------------------------------------------------------------------------  
g------------------------------------------------------------------------------------  
d--6---------------3---------------5---------------6---------------------------------  
a--6--about 11x’s--3--about 11x’s--3--about 11x’s--4--about 11x’s-------------------- 
d--6---------------3-----------------------------------------------------------------

chorus

e-------------------------------------------------------------------------
b-------------------------------------------------------------------------
g-------------------------------------------------------------------------
d--6-6-------3-3----5-5-5-5-5-5-5-5-5--6-6-6-6-6-6-6-6-6------------------
a--6-6-------3-3----3-3-3-3-3-3-3-3-3--4-4-4-4-4-4-4-4-4------------------
d--6-6-------3-3----------------------------------------------------------

that's all to that song
to look at lyrics etc.
www3.buddy4u.com/view/?u=moderndaychivalry
            
Hard to play? Try these video lessons and learn fast. | Correct




comments powered by Disqus
↑ Back to top | Tablatures and chords are parodies/interpretations of the original songs. You may use it for private study, scholarship, research or language learning purposes only