» » »

Unsigned, Long Since Forgotten Bass tabs (ver.1)

Artists:  A B C D E F G H I J K L M N O P Q R S T U V W X Y Z # 

Long Since Forgotten Bass tabs (ver.1)

Unsigned Tabs
 Rating:
4/5 (4 votes)
Long Since Forgotten lessons Tabs too difficult? Try these video lessons and learn fast
                Long Since Forgotten "Some Sort Of Meaning"

Intro:
G--------------------
D--------------------
A--22---00---44---22-
E--------------------

Chorus:
G---------------------------------------------
D---------------------------------------------
A----------2----------------------------------
E-0--2--4-----0--2--4--2/4\2---0-2-4-1-3-5----

play first verse then 

("...and its over now once again...")
G--------------------------------------
D--------------------------------------
A--222222/666666\000000/2222222--------
E--------------------------------------

Play Chorus

Interlude:
G--------------------
D--------------------
A-----------22--44---
E--22--44------------ x2

End with Chorus
            
Submit corrections

comments powered by Disqus
↑ Back to top | Unsigned Bass for Long Since Forgotten. Lyrics for acoustic guitar and electric guitar. Tablatures and chords are parodies/interpretations of the original songs. You may use it for private study, scholarship, research or language learning purposes only