» » »

Unsigned, Loki - Moving On Tabs (ver.1)

Artists:  A B C D E F G H I J K L M N O P Q R S T U V W X Y Z # 

Loki - Moving On Tabs (ver.1)

Unsigned Tabs
 Rating:
4/5 (4 votes)
Loki - Moving On lessons Tabs too difficult? Try these video lessons and learn fast
                Tuning:Standard

Verse x4
----------------|-------------------|---------------------------------|
----------------|-------------------|---------------------------------|
----------------|-------------------|---------------------------------|
--5-5-5-5-5-5-5-|-0-3-3-3-0-1-1-1-0-|-5-5-5-5-5-5-5-0-3-3-3-0-1-1-1-0-|

Choras x2
----------------|-------------------|---------------------------------|
----------------|-------------------|---------------------------------|
--7-7-7-7-7-7-7-|-7-5-5-5-5-3-3-3-3-|-7-7-7-7-7-7-7-7-5-5-5-5-9-9-9-9-|
--7-7-7-7-7-7-7-|-7-5-5-5-5-3-3-3-3-|-7-7-7-7-7-7-7-7-5-5-5-5-9-9-9-9-|
--5-5-5-5-5-5-5-|-0-3-3-3-0-1-1-1-0-|-5-5-5-5-5-5-5-0-3-3-3-0-7-7-7-0-|

Verse x4

Choras x3

Solo

-5--5--5--5--3--3--1--1--|-5--5--5--5--3--3--7--7--|
---5--5--5--5--3--3--1--1|--5--5--5--5--3--3--7--7-|
-------------------------|-------------------------|
-------------------------|-------------------------|
-------------------------|-------------------------|
-------------------------|-------------------------|

Choras x2

End on 

----------|
----------|
----------|
---7------|
---7------|
---5------|
            
Submit corrections

comments powered by Disqus
↑ Back to top | Unsigned Tabs for Loki - Moving On. Lyrics for acoustic guitar and electric guitar. Tablatures and chords are parodies/interpretations of the original songs. You may use it for private study, scholarship, research or language learning purposes only