» » »

Unsigned, Lizards Of Oz - Bridge Tabs (ver.1)

Artists:  A B C D E F G H I J K L M N O P Q R S T U V W X Y Z # 

Lizards Of Oz - Bridge Tabs (ver.1)

Unsigned Tabs
 Rating:
4/5 (4 votes)
Lizards Of Oz - Bridge lessons Tabs too difficult? Try these video lessons and learn fast
1
                Bridge
The Lizards of Oz

Vocals and rythm guitar:Mat Heiney
Lead Guitar:Harry Droop
Bass Guitar:Finlay Anderson
Drums:Nick Anderson

Intro
E:----------------------------------------------------------------
B:-----------------8-8-xxx-6-6---------------------8-8-xxx-6-6----
G:--8-8-xxx-6-6----9-9-xxx-7-7------8-8-xxx-6-6----9-9-xxx-7-7----
D:--9-9-xxx-7-7----9-9-xxx-7-7------9-9-xxx-7-7----9-9-xxx-7-7----
A:--9-9-xxx-7-7----7-7-xxx-5-5------9-9-xxx-7-7----7-7-xxx-5-5----
E:--7-7-xxx-5-5---------------------7-7-xxx-5-5-------------------

Chorus
E:----------------------------------------------------------------
B:-----------------8-8-xxx-6-6---------------------8-8-xxx-6-6----
G:--8-8-xxx-6-6----9-9-xxx-7-7------8-8-xxx-6-6----9-9-xxx-7-7----
D:--9-9-xxx-7-7----9-9-xxx-7-7------9-9-xxx-7-7----9-9-xxx-7-7-x4-
A:--9-9-xxx-7-7----7-7-xxx-5-5------9-9-xxx-7-7----7-7-xxx-5-5----
E:--7-7-xxx-5-5---------------------7-7-xxx-5-5-------------------

Verse
E:----------------------------------------------------------------
B:----------------------------------------------------------------
G:--8-8-x-6-6-x-8-8-11-11--8-8-x-6-6-x-8-8-13-13------------------
D:--9-9-x-7-7-x-9-9-12-12--8-8-x-6-6-x-8-8-14-14---x3-------------
A:--9-9-x-7-7-x-9-9-12-12--8-8-x-6-6-x-8-8-14-14------------------
E:--7-7-x-5-5-x-7-7-10-10--7-7-x-5-5-x-7-7-12-12------------------

E:----------------------------------------------------------------
B:----------------------------------------------------------------
G:--8-8-x-6-6-x-8-8-11-11--8-8-x-6-6-x-8-8-13-13-13-13------------
D:--9-9-x-7-7-x-9-9-12-12--8-8-x-6-6-x-8-8-14-14-14-14------------
A:--9-9-x-7-7-x-9-9-12-12--8-8-x-6-6-x-8-8-14-14-14-14------------
E:--7-7-x-5-5-x-7-7-10-10--7-7-x-5-5-x-7-7-12-12-12-12------------

Bridge
E:--------------------------------------------
B:--------------------------------------------
G:--------------------------------------------
D:--7-7-7-7-7-7-7-7-4-4-4-4-4-4-4-4---x3------
A:--7-7-7-7-7-7-7-7-4-4-4-4-4-4-4-4-----------
E:--5-5-5-5-5-5-5-5-2-2-2-2-2-2-2-2-----------

E:--------------------------------------------
B:--------------------------------------------
G:--------------------------------------------
D:--7-7-7-7-7-7-7-7-4-4-4-4-44444444----------
A:--7-7-7-7-7-7-7-7-4-4-4-4-44444444----------
E:--5-5-5-5-5-5-5-5-2-2-2-2-22222222----------

Intro
Chorus
Verse
Chorus
Verse
Chorus
Bridge
Chorus
Bass Solo
Chorus
            
Submit corrections

comments powered by Disqus
↑ Back to top | Unsigned Tabs for Lizards Of Oz - Bridge. Lyrics for acoustic guitar and electric guitar. 1 Tablatures and chords are parodies/interpretations of the original songs. You may use it for private study, scholarship, research or language learning purposes only