» » »

Lithium - Mr Fatigue Bass tabs (ver.1)

Artists:  A B C D E F G H I J K L M N O P Q R S T U V W X Y Z # 

Lithium - Mr Fatigue Bass tabs (ver.1)

Unsigned
Rating:
0/5 (0 votes)

Hard to play? Try these video lessons and learn fast.
                Mr. Fatigue

Verse

|-----------------------------------|
|-----------------------------------|
|-------------------7-7-7-7---------|
|-3-3-3-3-3-3-3-3-5-----------------|

Chorus

|-----------------------------------|
|-----------------------------------|
|-3-3-3-3-3-3-3-3-0-0-0-0-0-0-0-0---|
|-----------------------------------|

End

|------------------------------------------------|
|------------------------------------------------|
|-5-5-5-5-5-5-5-5-5-5-5-50-0-0-0-0-0-0-0-0-0-0-0-|
|------------------------------------------------|

This is one of my favourites from our repetoir
            
Hard to play? Try these video lessons and learn fast. | Correct




comments powered by Disqus
↑ Back to top | Tablatures and chords are parodies/interpretations of the original songs. You may use it for private study, scholarship, research or language learning purposes only