» » »

Lithium - Lazy Boy Bass tabs (ver.1)

Artists:  A B C D E F G H I J K L M N O P Q R S T U V W X Y Z # 

Lithium - Lazy Boy Bass tabs (ver.1)

Unsigned
Rating:
0/5 (0 votes)

Hard to play? Try these video lessons and learn fast.
                
|---------------------------------------------------------------|
|---------------------------------------------------------------|
|---------------------------------------------------------------|
|-555555555555555555555555555555555555555555555555555555555555--|

|---------------------------------------------------------------|
|---------------------------------------------------------------|
|---------------------------------------------------------------|
|-5-7-9-2-2-2-2-2-2-2 5-7-9-2-2-2-2-2-2-2-----------------------| X2

|---------------------------------------------------------------|
|---------------------------------------------------------------|
|---------------------------------------------------------------|
|-5-5-5-2-2-2-222-2-2-2-2-5-5-5-2-2-2-555-2-2-2-2---------------| X4

|---------------------------------------------------------------|
|---------------------------------------------------------------|
|-2-2-2-2-2-5-5-5-5-5-5-5-5-2-2-2-2-2-5-5-5-5-5-5-5-5-----------|
|---------------------------------------------------------------| X4

|---------------------------------------------------------------|
|---------------------------------------------------------------|
|---------------------------------------------------------------|
|-5-5-5-2-2-2-222-2-2-2-2-5-5-5-2-2-2-555-2-2-2-2---------------| X4

|---------------------------------------------------------------|
|---------------------------------------------------------------|
|-2-2-2-2-2-5-5-5-5-5-5-5-5-2-2-2-2-2-5-5-5-5-5-5-5-5-----------|
|---------------------------------------------------------------| X4

|---------------------------------------------------------------|
|---------------------------------------------------------------|
|---------------------------------------------------------------|
|-5-7-9-2-2-2-2-2-2-2 5-7-9-2-2-2-2-2-2-2-----------------------| X2

|---------------------------------------------------------------|
|---------------------------------------------------------------|
|-------------3-3-3-3-3--------------3-3-3-3-3------------------|
|-0-0-0-2~-0-0----------0-0-0-2~-0-0----------------------------| X2
            
Hard to play? Try these video lessons and learn fast. | Correct




comments powered by Disqus
↑ Back to top | Tablatures and chords are parodies/interpretations of the original songs. You may use it for private study, scholarship, research or language learning purposes only