» » »

Lithium - All I Wanna Do Is Rock & Roll Bass tabs (ver.1)

Artists:  A B C D E F G H I J K L M N O P Q R S T U V W X Y Z # 

Lithium - All I Wanna Do Is Rock & Roll Bass tabs (ver.1)

Unsigned
Rating:
0/5 (0 votes)

Hard to play? Try these video lessons and learn fast.
                Riff 1
(Repeat X2)
|-------------------------
|-------------------------
|-------------------------
|-1-1-1>5-5-5<3-3-3>7-7-7-

Riff 2
(Repeat X2)
|------------------------------------
|------------------------------------
|-----------------------------5-3-2-3
|-5-5--5-5--5-5--5-5--5-5--5-5-------

Riff 3
(Repeat until get to chorus)
|------------------------------------------------------------
|------------------------------------------------------------
|--------------------------------------------------------3-5-
|-0-0-0-0-3-3-3-3-0-0-0-0-3-3-3-3-0-0-0-0-3-3-3-3-0-0-0-0----

Riff 4 (Chorus)
|--------------------------------------------
|--------------------------------------------
|--------------------------------------------
|-7-7-7-7-7-7-5-5-5-5-5-5-1-1>5-5-5<1-1>5-5-5

Riff 5
(Bridge & Solo)
|--------------------
|--------------------
|--------------------
|-1-1>5-5-5<1-1>5-5-5

Riff 6
(Ring out)
|---
|---
|---
|-1-

Order

Riff 1
Riff 2
Riff 3
Riff 4
Riff 5
Riff 2
Riff 3
Riff 4
Riff 5 (Solo - Repeat until solos is over)
Riff 2
Riff 3
Riff 4
Riff 5
Riff 6
            
Hard to play? Try these video lessons and learn fast. | Correct




comments powered by Disqus
↑ Back to top | Tablatures and chords are parodies/interpretations of the original songs. You may use it for private study, scholarship, research or language learning purposes only