» » »

Unsigned, Levy Grind-Tell Me Tabs (ver.1)

Artists:  A B C D E F G H I J K L M N O P Q R S T U V W X Y Z # 

Levy Grind-Tell Me Tabs (ver.1)

Unsigned Tabs
Rating:
0/5 (0 votes)
Levy Grind-Tell Me lessons Tabs too difficult? Try these video lessons and learn fast
                E--------------------------------------------
B--------------------------------------------
G-----5--5--5---8--8--8---3--3—3------                  TWICE
D---5--5--5---8--8--8---3--3—3--------
A-------------------------------------4-4-4
E--------------------------------------------

E--------------------------------------------------------------------
B--------------------------------------------------------------------
G--------------------------------------------------------------------
D--------------------------------------------------------------------
A---8--8--xxx--8---5--5--xxx--5---3--3--xxx--3---6-6-6-6--
E---6--6--xxx--6---3--3--xxx--3---1--1--xxx--1---4-4-4-4--

Play again one fret higher example:

First time was this:  A---8--8   then second time would be this: A---9--9
                                 E---6--8                                                       E---7--9
Then last bit: A---6-6-6-6
                       E---4-4-4-4

Then on full distortion:

E---------------------------------------------------------
B---------------------------------------------------------   then again one 1 higher fret
G---------------------------------------------------------
D---------------------------------------------------------
A---6--8--888--8---5--5--555--5---3--3--333--3---
E---6--8--666--6---3--3--333--3---1--1--111--1---

Back to 1st power chord for verse (repeated)

Why don’t you talk to me anymore?
Is it something I said? Is it something I ain’t?

Why’d you date me if I’m such a bore?
Are you seein other guys? Are you tryin to score?

Chorus: 
                E----------------------------------------------         twice then back to verse       
                B----------------------------------------------     
                G----------------------------------------------       (if you want lyrics or to cover 
                A---3-3-3-3-3---  tell me  ---3-3-3-3-3---    
                E---4-4-4-4-4---                ---4-4-4-4-4---     
            
Submit corrections

comments powered by Disqus
↑ Back to top | Unsigned Tabs for Levy Grind-Tell Me. Lyrics for acoustic guitar and electric guitar. Tablatures and chords are parodies/interpretations of the original songs. You may use it for private study, scholarship, research or language learning purposes only