» » »

Unsigned, Last Pocket - Untitled Tabs (ver.1)

Artists:  A B C D E F G H I J K L M N O P Q R S T U V W X Y Z # 

Last Pocket - Untitled Tabs (ver.1)

Unsigned Tabs
 Rating:
4/5 (4 votes)
Last Pocket - Untitled lessons Tabs too difficult? Try these video lessons and learn fast
1
                Space means to pause about 1 second 
/ means to pull and hit


(1) E----------------------------------------------------------------------------------------------|
A----3----------3--------3-------3--------3-------3--------3-------3----------------------|
D-------2----2----2---2---2---2---2---2---2---2---2---2---2---2---2---2---------------|   (2x)
G----------5---------5-------4--------4-------2--------2-------4--------4-----------------|
B----------------------------------------------------------------------------------------------|
E----------------------------------------------------------------------------------------------|

(2)  E----------------------------------------------------------------------------------------------|
A----0----------0--------0-------0--------0-------0--------0------0----------------------|
D-------2----2----2---2---2---2---2---2---2---2---2---2---2---2---2------------------|   (1x)
G----------2---------2-------4--------4-------2--------2-------4--------4-----------------|
B---------------------------------------------------------------------------------------------|
E----------------------------------------------------------------------------------------------|
(For verse Repeat 1&2 one time)
Chorus-

 E----------------------------------------------------------------------------------------------|
A---3---3 3-----0---0 0-----2---2 2--22222222-----------------------------------------------------|
D---2---2 2-----2---2 2-----2---2 2--55553322-----------------------------------------|   (4x)
G---------------------------------------------------------------------------------|
B---------------------------------------------------------------------------------------------|
E----------------------------------------------------------------------------------------------|
(go back to verse twice then chorus again then the bridge)
Bridge
 E----------------------------------------------------------------------------------------------|
A----3--33--3--33---0--00--0--00---2--22--2--22----2222---22---22-----------------|
D------2----2--2---2---2----2--2---2---2----2--2---2---------5----3-----2/3/2----------|  (2x)
G----------------------------------------------------------------------------------------------|
B----------------------------------------------------------------------------------------------|
E----------------------------------------------------------------------------------------------|

(chorus twice)
            
Submit corrections

comments powered by Disqus
↑ Back to top | Unsigned Tabs for Last Pocket - Untitled. Lyrics for acoustic guitar and electric guitar. 1 Tablatures and chords are parodies/interpretations of the original songs. You may use it for private study, scholarship, research or language learning purposes only