» » »

Unsigned, La Duda - Idnic Tabs (ver.1)

Artists:  A B C D E F G H I J K L M N O P Q R S T U V W X Y Z # 

La Duda - Idnic Tabs (ver.1)

Unsigned Tabs
 Rating:
4/5 (4 votes)
La Duda - Idnic lessons Tabs too difficult? Try these video lessons and learn fast
1
                Idnic
Tuning E A D G B e

Intro A (Both Guitars) Clean

 Bm  F#   G  F#   Bm  F#  G   F#
|-x-|-x-|-x-|-0-|-0-|-0-|-0-|-0--
|-3-|-x-|-x-|-0-|-3-|-0-|-0-|-0--
|-4-|-3-|-4-|-3-|-4-|-3-|-4-|-3--
|-4-|-4-|-5-|-4-|-4-|-4-|-5-|-4--
|-2-|-4-|-5-|-4-|-2-|-4-|-5-|-4--
|---|-2-|-3-|-2-|-0-|-2-|-3-|-2--

Intro B (Guitar Two) Clean
|-0----------0----------0----------0--
|-3----------0----------0----------0--
|-4----------3----------4----------3--
|-4----------4----------5----------4--
|-2----------4----------5----------4--
|-0----------2----------3----------2--

Intro B (Guitar One) Clean
|------0----------------0-----------0---------0----------------
|--------3----------------0-----------0---------0-0------------
|----------4----------3-----------4-----------------3-3--------
|----4-------4------4-----------5-----------------------4-4----
|--2--------------4-----------5-------------4---------------4--
|---------------2-----------3-------------2--------------------

Verse A (Guitar Two Only) Clean
|-------------------------------------------------------------------
|---------3---2-----------3---2-------------------------------------
|-----4-----4---4-----4-----4---4----------4---------------3---4----
|---4---4-----------4---4--------------5-----5-7-5-----4-----4---4--
|-2---------------2------------------5---5-----------4---4----------
|----------------------------------3---------------2----------------
 
Interlude A (Verse B Guitar One) Distorted
|------------------2222222222---
|------------------2222222222---
|-4444-------------2222222222---
|-4444-4444-5555-444444444444---
|-2222-4444-5555-444444444444---
|------2222-3333-222222222222---

Interlude B (Guitar One) Distorted
|-2222-2222-3333-22-------------
|-2222-2222-3333-22-------------
|-4444-2222-3333-22-------------
|-4444-4444-5555-444444444444---
|-2222-4444-5555-444444444444---
|-2222-2222-3333-222222222222---

Interlude C (Guitar One) Distorted
|-------------------------------
|-------------------------------
|----44444----------------------
|----44444--44444-55555-44444---
|----22222--44444-55555-44444---
|-----------22222-33333-22222---
p.m.  ...     ...   ...   ...

Outro (Guitar One) Distorted
|---------------------
|---------------------
|-4~------------------
|-4~--4~-5~-4-4-4-4~--
|-2~--4~-5~-4-4-4-4~--
|-----2~-3~-2-2-2-2~--

Outro (Guitar Two After Guitar One) Clean
|-------------------------------------0--
|-------------------------------------3--
|-----4-----------------4-------------4--
|---4---4-----4-------5---5-----------4--
|-2---------4---4---5-------5---------2--
|---------2-------3-----------3~------0--
            
Submit corrections

comments powered by Disqus
↑ Back to top | Unsigned Tabs for La Duda - Idnic. Lyrics for acoustic guitar and electric guitar. 1 Tablatures and chords are parodies/interpretations of the original songs. You may use it for private study, scholarship, research or language learning purposes only