» » »

Kudrna-Time Tabs (ver.1)

Artists:  A B C D E F G H I J K L M N O P Q R S T U V W X Y Z # 

Kudrna-Time Tabs (ver.1)

Unsigned
Rating:
0/5 (0 votes)

Tabs too difficult? Try these video lessons and learn fast.
                This is just the basic riff.  Listen to the song and you will get the rythms.


-------------------------
-------------------------
-------------7-----------
----5--------7-----7-----9
----5--------5-----7-----9
----3--------------5-----7


-------------------------
-------------------------
-------------7-----------
----5--------7-----7-----9
----5--------5-----7-----9
----3--------------5-----7

-------------------------
-------------------------
-------------7-----------
----5--------7-----7-----9
----5--------5-----7-----9
----3--------------5-----7
            
Tabs too difficult? Try these video lessons and learn fast.




comments powered by Disqus
↑ Back to top | Tablatures and chords are parodies/interpretations of the original songs. You may use it for private study, scholarship, research or language learning purposes only