» » »

Kudrna-Loser With A Dream Tabs (ver.1)

Artists:  A B C D E F G H I J K L M N O P Q R S T U V W X Y Z # 

Kudrna-Loser With A Dream Tabs (ver.1)

Unsigned
Rating:
0/5 (0 votes)

Hard to play? Try these video lessons and learn fast.
                --------------------------------------
--------------------------------------
------------9-----11-----7-----9------
------7-----9-----11-----7-----9------7
------7-----7-----9------5-----7------7
------5-------------------------------5

--------------------------------------
--------------------------------------
------------9-----11-----7-----9------
------7-----9-----11-----7-----9------7
------7-----7-----9------5-----7------7
------5-------------------------------5


--------------------------------------
--------------------------------------
------------9-----11-----7-----9------
------7-----9-----11-----7-----9------7
------7-----7-----9------5-----7------7
------5-------------------------------5


This is the basic riff.  Listen to song for the rythms.
            
Hard to play? Try these video lessons and learn fast. | Correct




comments powered by Disqus
↑ Back to top | Tablatures and chords are parodies/interpretations of the original songs. You may use it for private study, scholarship, research or language learning purposes only