» » »

Korosive Element- Straw Mane Tabs (ver.1)

Artists:  A B C D E F G H I J K L M N O P Q R S T U V W X Y Z # 

Korosive Element- Straw Mane Tabs (ver.1)

Unsigned
Rating:
0/5 (0 votes)

Hard to play? Try these video lessons and learn fast.
                Intro

E-----------------------------0-3-5-3-0
B---------------0-4-3-0-4-3-----------
G-0-4-3-0-4-3-------------------------
D----------------------------------------
A----------------------------------------
E-----------------------------------------

Chorus

E-0-0-0-0-0-0---0-0--------}
B-1-1-0-0-1-1---0-0--------}
G-0-0-0-0-0-0---1-1--------}  X2
D-2-2-2-2-2-2---2-2--------}
A-3-3-3-3-3-3---2-2--------}
E-0-0-0-0-0-0---0-0--------}


Bridge

E-3-4-1--------------------
B---------------------------
G-------2-3-4-------------
D---------------------------
A---------------------------
E-------------5-1-2-4-4-2

Repeat Chorus X2
            
Hard to play? Try these video lessons and learn fast. | Correct




comments powered by Disqus
↑ Back to top | Tablatures and chords are parodies/interpretations of the original songs. You may use it for private study, scholarship, research or language learning purposes only