» » »

Unsigned, Kitts - This Is The Way It Will Be Tabs (ver.1)

Artists:  A B C D E F G H I J K L M N O P Q R S T U V W X Y Z # 

Kitts - This Is The Way It Will Be Tabs (ver.1)

Unsigned Tabs
 Rating:
4/5 (4 votes)
Kitts - This Is The Way It Will Be lessons Tabs too difficult? Try these video lessons and learn fast
                Kitts
“This Is How It Will Be”

Standard Tuning

e|-----3------3------2--3-3-3-2|
B|-----3------3------3--3-3-3-3|
G|-----0------0----2-2--2-2-2-2|
D|-----0----2----0-------------|	x2
A|---2----3--------------------|
E|-3---------------------------|


e|-----3-------3------2—-3-3-3-2|
B|-----3-------3------3—-3-3-3-3|
G|-----0-------0—-2-2-2—-2-2-2-2|
D|---------2-2----0-0-0---------|	x2
A|-2-2-----3-3------------------|
E|-3-3--------------------------|


e|-3-3-3-3—-3-3-3-3—-2-2-2-2—-3-3-3-2|
B|-3-3-3-3—-3-3-3-3—-3-3-3-3—-3-3-3-3|
G|-0-0-0-0—-0-0-0-0—-2-2-2-2—-2-2-2-2|
D|-0-0-0-0—-2-2-2-2—-0-0-0-0---------|	x4
A|-2-2-2-2—-3-3-3-3------------------|
E|-3-3-3-3---------------------------|


e|--------2-2-2-3-2|
B|-1-1-1--3-3-3-3-3|
G|-0-0-0--2-2-2-2-2|
D|-2-2-2--0-0-0-0-0|	x4
A|-3-3-3-----------|
E|-----------------|


e|-3-3-3-3—-3-3-3-3—-2-2-2-2—-3-3-3-2|
B|-3-3-3-3—-3-3-3-3—-3-3-3-3—-3-3-3-3|
G|-0-0-0-0—-0-0-0-0—-2-2-2-2—-2-2-2-2|
D|-0-0-0-0—-2-2-2-2—-0-0-0-0---------|	x4
A|-2-2-2-2—-3-3-3-3------------------|
E|-3-3-3-3---------------------------|


e|------------------------------------
B|------------------------------------
G|--------------5-------7-------9-----
D|-----5------5---5---7---7---7---7---	x4
A|---5---5--3-------5-------5---------
E|-3----------------------------------


e|--------2-2-2-3-2|		e|-3-|
B|-1-1-1--3-3-3-3-3|		B|-3-|
G|-0-0-0--2-2-2-2-2|		G|-0-|
D|-2-2-2--0-0-0-0-0|	x4	D|-0-|
A|-3-3-3-----------|		A|-2-|
E|-----------------|		E|-3-|


2003
            
Submit corrections

comments powered by Disqus
↑ Back to top | Unsigned Tabs for Kitts - This Is The Way It Will Be. Lyrics for acoustic guitar and electric guitar. Tablatures and chords are parodies/interpretations of the original songs. You may use it for private study, scholarship, research or language learning purposes only