» » »

Unsigned, Kasie - Its Brendan Tabs (ver.1)

Artists:  A B C D E F G H I J K L M N O P Q R S T U V W X Y Z # 

Kasie - Its Brendan Tabs (ver.1)

Unsigned Tabs
 Rating:
4/5 (4 votes)
Kasie - Its Brendan lessons Tabs too difficult? Try these video lessons and learn fast
                sup ya'l this song is about a teacher at a school called Brendan Biggs

standard tuning 
E,A,D,G,B,e

(E-7—7-4—7-7-7-7-6-7-8-9                                   

E-9---9-6---9-9-9-9-8-9-10-11

E-11---11-8---11-11-11-11-10-11-12-13

E-13---13-10---13-13-13-13-12-13-14-15) x2

D-3-3-3-3-3-1-2-3-3-3-3-3-3-5-4-3
A-3-3-3-3-3-1-2-3-3-3-3-3-3-5-4-3
E-3-3-3-3-3-1-2-3-3-3-3-3-3-5-4-3 x6


(E-7—7-4—7-7-7-7-6-7-8-9                                   

E-9---9-6---9-9-9-9-8-9-10-11

E-11---11-8---11-11-11-11-10-11-12-13

E-13---13-10---13-13-13-13-12-13-14-15) x2


D- 4-4-4-4-4-4-4-4-5-5-5-5-5-5-5-5-7-7-7-7-7-7-7-7-------
A- 4-4-4-4-4-4-4-4-5-5-5-5-5-5-5-5-7-7-7-7-7-7-7-7-------
E- 2-2-2-2-2-2-2-2-3-3-3-3-3-3-3-3-5-5-5-5-5-5-5-5-5/22-


Thanks ya'l
            
Submit corrections

comments powered by Disqus
↑ Back to top | Unsigned Tabs for Kasie - Its Brendan. Lyrics for acoustic guitar and electric guitar. Tablatures and chords are parodies/interpretations of the original songs. You may use it for private study, scholarship, research or language learning purposes only