>
 >
Karmahitlist - Erase Me

Karmahitlist - Erase Me Guitar Tabs

Unsigned - Karmahitlist - Erase Me chords, tabs, tablatures, lyrics

Guitar lessons | Add/correct | Request | Top 50 tabs Artists:  A B C D E F G H I J K L M N O P Q R S T U V W X Y Z 0-9

Karmahitlist - Erase Me Guitar Tabs – Unsigned

CD, Sheet music, Poster

Do you like Karmahitlist - Erase Me? Share with your friends now
Tabs
Tuning: Drop-C
If want to know it in drop D then simply play each note/chord two frets lower
on the board - i.e. if it says to hit the 6th fret, hit the 4th

This band was really amazing. Sad they broke up.
You can check their stuff on mp3.com/karmahitlist



:: Verse 1 ::
[Clean w/ reverb]

|--------------------------------------------------------
|--------------------------------------------------------
|-------------9-----------9------------------------------
|-x-11----11-------9---9------------------7-------7------
|---------------------------------11---11-----7------7---
|--------------------------------------------------------
   


:: Chorus ::
[Distortion]

|-----------------------------------------------------------
|-----------------------------------------------------------
|---------------------9-------------------------------------
|-7---7---7---7---7---9---7-7-7-7-7-7-7-7-7-7-7-7-7-7-7-7-7-
|-7---7---7---7---7---7---7-7-7-7-7-7-7-7-7-7-7-7-7-7-7-7-7-
|-7---7---7---7---7-------7-7-7-7-7-7-7-7-7-7-7-7-7-7-7-7-7-
  G                   D   G


:: Fill ::
[Clean w/ reverb]

Play this after chorus (call it 'fill' riff)
|--------------------------------------------------------
|--------------------------------------------------------
|-------------9-----------9------------------------------
|-x-11----11-------9---9------------------7--------------
|---------------------------------11---11-----7---7--7---
|--------------------------------------------------------


:: Verse 2 ::
[Clean w/ reverb]

|--------------------------------------------------------
|--------------------------------------------------------
|-------------9-----------9------------------------------
|-x-11----11-------9---9------------------7-------7------
|---------------------------------11---11-----7------7---
|--------------------------------------------------------

Play fill on 3rd time, then one last verse riff


 Chorus

:: Interlude ::           3:00
[Clean w/ reverb]

|----------------------------------------------------------
|-------------10--9--9-------------------------------------
|-9--8--8-6------------9-----------------------------------
|-------------------------4h6-6-6h7-7-7-9--4h6-6-6h7-7-7-9-
|----------------------------------------------------------
|----------------------------------------------------------
 D  Cb Cb B   Fb F   F D  E Fb    G     A

at 3:30, play

|----------------------------------------------------------------
|-------------10--9--9-------------------------------------------
|-9--8--8-6------------9-----------------------------------------
|-------------------------4h6-6-6h7-7-7-9-9h11-11-11h13-13-13/14-
|----------------------------------------------------------------
|----------------------------------------------------------------
                                            B        Cb       D
 back to verse riff

|--------------------------------------------------------
|--------------------------------------------------------
|-------------9-----------9------------------------------
|-x-11----11-------9---9------------------7-------7------
|---------------------------------11---11-----7------7---
|--------------------------------------------------------

 chorus

 Interlude


[Outro]           5:20
[Clean w/ reverb]

|--------------------------------------------------------
|-------------------------------------------------5~~----
|-------------9-----------9------------------------------
|-x-11----11-------9---9------------------7--------------
|---------------------------------11---11-----7----------
|--------------------------------------------------------

And thats the song. Probably not 100% accurate but sounds
good to me. Enjoy!

[-M-]





Comments


Popular Unsigned tabs & chords
Hijacked Mojo - Nothin New Under The Sun Bass Tabs
Rift- Up In Arms Bass Tabs
Sixdaystoyesterday - Feelings Inside Bass Tabs
System Flatline - Fair Weathered Friends Bass Tabs
Drywater-Cratephone Tabs
Fools Gold - Rich Tabs
Glytch - Frustrated Tabs
In Question - February 5th Tabs
Loki - Moving On Tabs
Long Walk Home- All The Attention... Tabs


Song lyrics



↑ Back to top | Tablatures and chords are parodies/interpretations of the original songs. You may use it for private study, scholarship, research or language learning purposes only
© 2014 AZChords.com Contact us | Privacy policy | DMCA | Add/correct tabs | Request tabs | Top 50 tabs