» » »

Unsigned, Just An Easy Song I Made Tabs (ver.1)

Artists:  A B C D E F G H I J K L M N O P Q R S T U V W X Y Z # 

Just An Easy Song I Made Tabs (ver.1)

Unsigned Tabs
 Rating:
4/5 (4 votes)
Just An Easy Song I Made lessons Tabs too difficult? Try these video lessons and learn fast
1
                intro
--------0----------0---------0--------------------------------------------------
------2----------2---------0---------0-----0------------------------------------x2
---2-------2--3------3--2----------2-----0------------------------------------
---------------------------------3-----3---------------------------------------

verse
-----3----3----0----2h3------------------------------------------------------------
-----3----3----0----3-----------------------------------------------------------
-----0----0----0----2------------------------------------------------------------
-----2----2----0---------------------------------------------------------------    x8
-----2----3----2----------------------------------------------------------------
---------------3-------------------------------------------------------------

prechorus
---0----0-----0----------------------------------------------------------------
---0----1-----3-----------------------------------------------------------------
---0----2-----0-----------------------------------------------------------------
---2----2-----2-----------------------------------------------------------------   x2
---2----0-----3-----------------------------------------------------------------

chorus

---3----3----3----2h3--------------------------------------------------------------
---3----3----3----3--------------------------------------------------------------
---0----0----0----2--------------------------------------------------------------  x4
---0----2----2------------------------------------------------------------------
---2----3----2------------------------------------------------------------------
---3--------------------------------------------------------------------------

interlude
-------3----------3-------------3-----------------------------------------------
-------3----------3-------------3-----------------------------------------------
----2----------2--------------0---------0-------0--------------------------------- x2
--2------2--3--------3-----2---------2------0---------------------------------------
-------------------------------------3------2----------------------------------
            
Submit corrections

comments powered by Disqus
↑ Back to top | Unsigned Tabs for Just An Easy Song I Made. Lyrics for acoustic guitar and electric guitar. 1 Tablatures and chords are parodies/interpretations of the original songs. You may use it for private study, scholarship, research or language learning purposes only