» » »

Junk Mail - Sleep Long Bass tabs (ver.1)

Artists:  A B C D E F G H I J K L M N O P Q R S T U V W X Y Z # 

Junk Mail - Sleep Long Bass tabs (ver.1)

Unsigned
Rating:
0/5 (0 votes)

Hard to play? Try these video lessons and learn fast.
                Intro/Chorus/Solo

|--------------------------------|
|--------------------------------|
|----------------0-0-3-5-0-0-3-5-|   (2x)
|0-0-3-5-0-0-3-5-----------------|


     Verse

|--------------------------------------------------|
|----77-66-44-22-11------3333-2222-222-2-4-3-2~----|
|-44----------------0000-----0----0----------------|
|------------------------------------------------0-|

        please rate my tab
            
Hard to play? Try these video lessons and learn fast. | Correct




comments powered by Disqus
↑ Back to top | Tablatures and chords are parodies/interpretations of the original songs. You may use it for private study, scholarship, research or language learning purposes only