» » »

Juniper - Letter Home Tabs (ver.1)

Artists:  A B C D E F G H I J K L M N O P Q R S T U V W X Y Z # 

Juniper - Letter Home Tabs (ver.1)

Unsigned
Rating:
0/5 (0 votes)

Hard to play? Try these video lessons and learn fast.
                Intro

e|------------------------------------|
B|------------------------------------|
G|------------------------------------|
D|----3-2------3-2------3-2------3-2--|
A|--0-----3--0-----3--0-----3--0------|
E|------------------------------------|
                                          X6
e|------------------------------------|
B|------------------------------------|
G|------------------------------------|
D|----3-2------3-2------3-2------2-3--|
A|--0-----3--0-----3--0-----3--0------|

Verse

e|------------------------------------|
B|------------------------------------|
G|--4-4-4-4-4-4-4-4--6-6-6-6-6-6-6-6--|
D|--2-2-2-2-2-2-2-2--4-4-4-4-4-4-4-4--|
A|--2-2-2-2-2-2-2-2--4-4-4-4-4-4-4-4--|
E|------------------------------------|

e|------------------------------------|
B|------------------------------------|
G|------------------------------------|
D|--6-6-6-6-6-6-6-6--4-4-4-4-4-4-4-4--|
A|--6-6-6-6-6-6-6-6--4-4-4-4-4-4-4-4--|
E|--4-4-4-4-4-4-4-4--2-2-2-2-2-2-2-2--|

Repeat Intro

Chorus

e|------------------------------------|
B|------------------------------------|
G|--6-6-6-6-6-6-6-6--8-8-8-8-8-8-8-8--|
D|--6-6-6-6-6-6-6-6--8-8-8-8-8-8-8-8--|
A|--4-4-4-4-4-4-4-4--6-6-6-6-6-6-6-6--|
E|------------------------------------|

e|------------------------------------|
B|------------------------------------|
G|------------------------------------|
D|--8-8-8-8-8-8-8-8--6-6-6-6-6-6-6-6--|
A|--8-8-8-8-8-8-8-8--6-6-6-6-6-6-6-6--|
E|--6-6-6-6-6-6-6-6--4-4-4-4-4-4-4-4--|

Outro

e|------------------------------------|
B|------------------------------------|
G|------------------------------------|
D|----3-2------3-2------3-2------2-3--|
A|--0-----3--0-----3--0-----3--0------|
E|------------------------------------|
PM  . . . .  . . . .  . . . .  . . .

e|------------------------------------|
B|------------------------------------|
G|------------------------------------|
D|----3-2------3-2------3-2------3-2--|
A|--0-----3--0-----3--0-----3--0------|
PM  . . . .  . . . .  . . . .  . . .

Lyrics:

Dear Mom,
Id like you to know that Im still in school
Id like you to know that I don’t do drugs
Id like you to know that Im everything you wanted me to be.

Dear Mom,
Id like you to know that that was a lie
Id like you to know that Im not still in school
Id like you to know that Im not everything that you wanted me to be.

(chorus)
Im just a punk little rock kid
Its what I choose to be
Just a punk little rock kid
Yeah it’s the life for me
Punk little rock kid
Punk little rock kid

Dear Dad,
Id like you to know that I have a house
Id like you to know that I work on cars
Id like you to know that Im everything you wanted me to be.

Dear Dad,
Id like you to know that that was a lie
Id like you to know that I dont work on cars
Id like you to know that Im not everything that you wanted me to be.

(chorus) X2
fade out


There ya go! Have fun with it!
            
Hard to play? Try these video lessons and learn fast. | Correct




comments powered by Disqus
↑ Back to top | Tablatures and chords are parodies/interpretations of the original songs. You may use it for private study, scholarship, research or language learning purposes only