» » »

Unsigned, Joint Blue - Blind Bass tabs (ver.1)

Artists:  A B C D E F G H I J K L M N O P Q R S T U V W X Y Z # 

Joint Blue - Blind Bass tabs (ver.1)

Unsigned Tabs
 Rating:
4/5 (4 votes)
Joint Blue - Blind lessons Tabs too difficult? Try these video lessons and learn fast
                Tuning:   E A D G

Verse (After guitar Intro.)
G---------------------------------------------------------------------------------------------------------
D---------------------------------------------------------------------------------------------------------
A--5-5-5-5-5-5-5-5-----7--7-7--7-7------------------------------------------------------------------
E---------------------------------------------3-3-3-3-3-3-3-3-----5--5-5--5-5-----------------------

Chorus
G---------------------------------------------------------------------------------------------------------
D---------------------------------------------------------------------------------------------------------
A--5--5-----7--7-----5---------------------------------3---5-------------------------------------------
E---------------------------5----------3--3-----5--5----------------------------------------------------

Bridge
G---------------------------------------------------------------------------------------------------------
D---------------------------------------------------------------------------------------------------------
A---------------3-3-3-33----------------5-5-5-55-----------------------------------------------------
E--5-5-5-55----------------3-3-3-33------------------------------------------------------------------

Order:
Verse x4
Chorus x4
Verse x4
Chorus x4
Bridge x6 
Chorus x6
            
Submit corrections

comments powered by Disqus
↑ Back to top | Unsigned Bass for Joint Blue - Blind. Lyrics for acoustic guitar and electric guitar. Tablatures and chords are parodies/interpretations of the original songs. You may use it for private study, scholarship, research or language learning purposes only