» » »

Jj - Midnight Quiet Bass tabs (ver.1)

Artists:  A B C D E F G H I J K L M N O P Q R S T U V W X Y Z # 

Jj - Midnight Quiet Bass tabs (ver.1)

Unsigned
Rating:
0/5 (0 votes)

Hard to play? Try these video lessons and learn fast.
                JJ
Midnight Quiet

G|--------------------------
D|------------0-------------
A|-----2---10---10---4-5----
E|--3--------------------5--

G|------------0-------------
D|-----4---12---12---8-9----
A|--5--------------------9--
E|--------------------------

G|-----0---4---4---4-5----
D|--5------------------5--
A|------------------------
E|-----------0------------

G|------------------------
D|-----2---3---3----------
A|--3--------------3-5----
E|-----------5---------5--
            
Hard to play? Try these video lessons and learn fast. | Correct




comments powered by Disqus
↑ Back to top | Tablatures and chords are parodies/interpretations of the original songs. You may use it for private study, scholarship, research or language learning purposes only