» » »

Jj - Land Of A Bass tabs (ver.1)

Artists:  A B C D E F G H I J K L M N O P Q R S T U V W X Y Z # 

Jj - Land Of A Bass tabs (ver.1)

Unsigned
Rating:
0/5 (0 votes)

Hard to play? Try these video lessons and learn fast.
                JJ
Land of A

G|-----7--------7-----|--------
D|--7----6-7--7---6-7-|-9-7-9--
A|--------------------|--------
E|--------------------|--------

-----9--
-9-7----
--------
--------

G|-----7--------7-----|--------
D|--7----6-7--7---6-7-|-9-7-9--
A|--------------------|--------
E|--------------------|--------

-----9--
-9-7----
--------
--------

Its a great lead into a solo
            
Hard to play? Try these video lessons and learn fast. | Correct




comments powered by Disqus
↑ Back to top | Tablatures and chords are parodies/interpretations of the original songs. You may use it for private study, scholarship, research or language learning purposes only