» » »

Jj - Good Friend Bass tabs (ver.1)

Artists:  A B C D E F G H I J K L M N O P Q R S T U V W X Y Z # 

Jj - Good Friend Bass tabs (ver.1)

Unsigned
Rating:
0/5 (0 votes)

Hard to play? Try these video lessons and learn fast.
                JJ
Good Frend


    s              s                s
G|------------------------------------------------
D|-----5-3-----3------5-3-----3-5------5-3-----3--
A|---------3/5------------3/5--------------3/5----
E|--3--------------3----------------3-------------

    s
G|-------3--------5--
D|-----5------3/5----
A|---------5---------
E|--3----------------
            
Hard to play? Try these video lessons and learn fast. | Correct




comments powered by Disqus
↑ Back to top | Tablatures and chords are parodies/interpretations of the original songs. You may use it for private study, scholarship, research or language learning purposes only