» » »

Jj - Center Grass Bass tabs (ver.1)

Artists:  A B C D E F G H I J K L M N O P Q R S T U V W X Y Z # 

Jj - Center Grass Bass tabs (ver.1)

Unsigned
Rating:
0/5 (0 votes)

Hard to play? Try these video lessons and learn fast.
                JJ
Center Grass

G|------3-------3-----5-3---|------3-------3-5-3-----3--
D|--3-5---5-3-5---5-3-----3-|--3-5---5-3-5-------5-3----
A|--------------------------|---------------------------
E|--------------------------|---------------------------

G|------3-------3-----5-3---|------3-5-3---3-5------
D|--3-5---5-3-5---5-3-----3-|--3-5-------5-----3-5--
A|--------------------------|-----------------------
E|--------------------------|-----------------------
            
Hard to play? Try these video lessons and learn fast. | Correct




comments powered by Disqus
↑ Back to top | Tablatures and chords are parodies/interpretations of the original songs. You may use it for private study, scholarship, research or language learning purposes only