» » »

Unsigned, Jimmy Talkington - Unknown Tabs (ver.1)

Artists:  A B C D E F G H I J K L M N O P Q R S T U V W X Y Z # 

Jimmy Talkington - Unknown Tabs (ver.1)

Unsigned Tabs
 Rating:
4/5 (4 votes)
Jimmy Talkington - Unknown lessons Tabs too difficult? Try these video lessons and learn fast
                Tuning
Drop D
D, A, D, G, B, E

-0-1/777777-0-1/777777-0-1/777777-0-1/77777-----------------------------------
                                                                              

-0-1/777777-0-1/777777-0-1/777777-0-1/77777-----------------------------------
-0-1/777777-0-1/777777-0-1/777777-0-1/77777-----------------------------------
-0-1/777777-0-1/777777-0-1/777777-0-1/77777-----------------------------------
                                                                              

-0-7-8-5-7-3-5-1-3-0----------------------------------------------------------
-0-7-8-5-7-3-5-1-3-0----------------------------------------------------------
-0-7-8-5-7-3-5-1-3-0----------------------------------------------------------
                                                                              

-0-7-8-5-7-3-5-1-3-0----------------------------------------------------------
-0-7-8-5-7-3-5-1-3-0----------------------------------------------------------
-0-7-8-5-7-3-5-1-3-0----------------------------------------------------------
                                                                              

-5---9----7---10--------------------------------------------------------------
-5---9----7---10--------------------------------------------------------------
-5-7-9-11-7-9-10-12-----------------------------------------------------------
-5-7-9-11-7-9-10-12-----------------------------------------------------------
-5---9----7---10--------------------------------------------------------------
-5---9----7---10--------------------------------------------------------------
                                                                              

-0-7-8-5-7-3-5-1-3-0----------------------------------------------------------
-0-7-8-5-7-3-5-1-3-0----------------------------------------------------------
-0-7-8-5-7-3-5-1-3-0----------------------------------------------------------
                                                                              

-0-7-8-5-7-3-5-1-3-0----------------------------------------------------------
-0-7-8-5-7-3-5-1-3-0----------------------------------------------------------
-0-7-8-5-7-3-5-1-3-0----------------------------------------------------------
                                                                              

-5---9----7---10---/3---------------------------------------------------------
-5---9----7---10---/3---------------------------------------------------------
-5-7-9-11-7-9-10-12/3-5-------------------------------------------------------
-5-7-9-11-7-9-10-12/3-5-------------------------------------------------------
-5---9----7---10---/3---------------------------------------------------------
-5---9----7---10---/3---------------------------------------------------------
                                                                              

-0-3-4-0-3-4-0-3-4-6-4-3-0----------------------------------------------------
                                                                              

-0-3-4-0-3-4-0-3-4-6-4-3-0----------------------------------------------------
-0-3-4-0-3-4-0-3-4-6-4-3-0----------------------------------------------------
-0-3-4-0-3-4-0-3-4-6-4-3-0----------------------------------------------------
                                                                              

-3--/7--/3--/7--/5------------------------------------------------------------
-3--/7--/3--/7--/5------------------------------------------------------------
-3-5/7-9/3-5/7-9/5-7----------------------------------------------------------
-3-5/7-9/3-5/7-9/5-7----------------------------------------------------------
-3--/7--/3--/7--/5------------------------------------------------------------
-3--/7--/3--/7--/5------------------------------------------------------------
                                                                              

-0-7-8-5-7-3-5-1-3-0----------------------------------------------------------
-0-7-8-5-7-3-5-1-3-0----------------------------------------------------------
-0-7-8-5-7-3-5-1-3-0----------------------------------------------------------
                                                                              

-0-7-8-5-7-3-5-1-333333333333-0-----------------------------------------------
-0-7-8-5-7-3-5-1-333333333333-0-----------------------------------------------
-0-7-8-5-7-3-5-1-333333333333-0-----------------------------------------------
            
Submit corrections

comments powered by Disqus
↑ Back to top | Unsigned Tabs for Jimmy Talkington - Unknown. Lyrics for acoustic guitar and electric guitar. Tablatures and chords are parodies/interpretations of the original songs. You may use it for private study, scholarship, research or language learning purposes only