» » »

Jfd&Jtb - Song 1 Tabs (ver.1)

Artists:  A B C D E F G H I J K L M N O P Q R S T U V W X Y Z # 

Jfd&Jtb - Song 1 Tabs (ver.1)

Unsigned
Rating:
0/5 (0 votes)

Hard to play? Try these video lessons and learn fast.
                "(0)
Standard Tuning.  
Guitar 1: Overdrive or distortion. 
Guitar 2: distortion

Intro:
e--------------------*-----------------------*-------------------*-
b------------------------------------------------------------------
g------------------------------5---4-----------5---4---0---4---5---
d--5---4---0---4---5-------5-----------4---5-----------------------
a----------------------5-------------------------------------------
e------------------------------------------------------------------

e-------------------------*--------------------*----------------------*
b----------------------------------------------------------------------
g----------5---4-----------------------------------------5---4---------
d------5-----------4---5-----5---4---0---4---5-------5-----------4---5-
a--5---------------------------------------------5---------------------
e----------------------------------------------------------------------

e----------------------------------------*~
b------------------------------------------
g------------------------------------------
d----------------------5---4---0---4---5~--
a--5---4---0---4---5-----------------------
e------------------------------------------

(Let the last note for guitar 1 ring through Guitar 2's part)
(Guitar 2 lets last part ring)

Guitar 2:(play where there is an *)
e--------------
b--------------
g--6-6---------
d--6-6---6-6---
a--4-4---6-6---
e--------4-4---

Verse: (Guitar 2)
e-----------------------------------
b-----------------------------------
g-5-5-5-5-7-7-7-7-9-9-9-9-7-7-7-7---
d-5-5-5-5-7-7-7-7-9-9-9-9-7-7-7-7---  x4
a-3-3-3-3-5-5-5-5-7-7-7-7-5-5-5-5---
e-----------------------------------

Chorus:(both played at same time, when played correctly, 
they should follow each other)
Guitar 1:
e--------------------------------
b--------------------------------
g--------------------------------
d-----------------1---1----------  x6
a--1---1---3---3---------1---1---
e--------------------------------

Guitar 2:
e-----------------------
b-----------------------
g--6-6------------------
d--6-6--6-6--8-8--4-4---  x6
a--4-4--6-6--8-8--4-4---
e-------4-4--6-6--2-2---

That is all we have for now, post the rest when we write it.
"            
Hard to play? Try these video lessons and learn fast. | Correct




comments powered by Disqus
↑ Back to top | Tablatures and chords are parodies/interpretations of the original songs. You may use it for private study, scholarship, research or language learning purposes only