» » »

Unsigned, Jazz Bass tabs (ver.1)

Artists:  A B C D E F G H I J K L M N O P Q R S T U V W X Y Z # 

Jazz Bass tabs (ver.1)

Unsigned Tabs
Rating:
0/5 (0 votes)
Jazz lessons Tabs too difficult? Try these video lessons and learn fast
                (Riff)
This riff I picked up during a practice and it sounds cool. If you like jazz you will love this.


G –--------------------------------------------
D ---------------------------------------------
A ----2-5-2-----2-5-2-----2-5-2-----2-5-2------
E –33--------33--------33--------33------------


G ---------------------------------------------
D ----2-5-2-----2-5-2--------------------------
A –33--------33-----------2-5-2-----2-5-2------
E ---------------------33--------33------------


G ---------------------
D ----4-7-4-----2-5-2--
A –55--------33--------
E ---------------------


G ---------------------
D ---------------------
A ----2-3-4-5-4-3-2----
E –33---------------3—


This is really easy. Have fun with it.

Please rate this tab, your bud Jason.
            
Submit corrections

comments powered by Disqus
↑ Back to top | Unsigned Bass for Jazz. Lyrics for acoustic guitar and electric guitar. Tablatures and chords are parodies/interpretations of the original songs. You may use it for private study, scholarship, research or language learning purposes only