» » »

Unsigned, Jazzas Cool Tabs (ver.1)

Artists:  A B C D E F G H I J K L M N O P Q R S T U V W X Y Z # 

Jazzas Cool Tabs (ver.1)

Unsigned Tabs
 Rating:
4/5 (4 votes)
Jazzas Cool lessons Tabs too difficult? Try these video lessons and learn fast
                (Riff)
This is a cool little rhythm I made. Hope you like it. This is my first tab so could you please give me some tips in the corrections centre.

V= down stroke
^= upstroke

e-------------------------------------------------------------------------------
b-------------------------------------------------------------------------------
g---------------------------------Play this 3 times then this-------------------
d-------------------------------------------------------------------------------
a-5-5-5-5-5-5---7-7---9-9------------------------------------------5-5-5-5-5-5--
e-3-3-3-3-3-3---5-5---7-7------------------------------------------3-3-3-3-3-3--
  v v ^ ^ v ^   v v   v v                                          v v ^ ^ v ^      
e-------------------------------------------------------------------------------
b-------------------------------------------------------------------------------
g-------------------------------------------------------------------------------
d-------------------------------------------------------------------------------
a-0-0---3-3---------------------------------------------------------------------
e-0-0---1-1---------------------------------------------------------------------
  v v   v v

 Play this rythm over and over
            
Submit corrections

comments powered by Disqus
↑ Back to top | Unsigned Tabs for Jazzas Cool. Lyrics for acoustic guitar and electric guitar. Tablatures and chords are parodies/interpretations of the original songs. You may use it for private study, scholarship, research or language learning purposes only