» » »

Unsigned, Jaundiced Eyes - No Rest For The Restles Tabs (ver.1)

Artists:  A B C D E F G H I J K L M N O P Q R S T U V W X Y Z # 

Jaundiced Eyes - No Rest For The Restles Tabs (ver.1)

Unsigned Tabs
 Rating:
4/5 (4 votes)
Jaundiced Eyes - No Rest For The Restles lessons Tabs too difficult? Try these video lessons and learn fast
1
                Jaundiced Eyes - No Rest for the Restless
I know it's kinda stupid to submit my band's tab, but I'm
bored so I'm doing it anyways.  Here it is.

E----------------------------------------------------|
B----------------------------------------------------|
G----------------------------------------------------|
D----------------5-4-2-------------------------------|
A----10-12-------5-4-2-------------------------------|
E--12-----10-8-7-3-2-0--0-0h10h12--------------------|

E----------------------------------------------------|
B----------------------------------------------------|
G----------------------------------------------------|
D--14-12-10-10-9-4-------------14\-X-----------------|
A--14-12-10-10-9-4-------------14\-X-----------------|
E--12-10--8--8-7-2-3-2-3-2-0-0-12\-0-----------------|

E----------------------------------------------------|
B----------------------------------------------------|
G----------------------------------------------------|
D--14-12-10-10-9-4-------------14\-X-----------------|
A--14-12-10-10-9-4-------------14\-X-----------------|
E--12-10--8--8-7-2-3-2-3-2-0-0-12\-0-----------------|

E----------------------------------------------------|
B----------------------------------------------------|
G----------------------------------------------------|
D--14-14-17-17-----------------17--------X-----------|
A--14-14-17-17-17------------------------X-----------|
E--12-12-15-15----19-18-19-18^----19-18\-0-----------|

E----------------------------------------------------|
B----------------------------------------------------|
G----------------------------------------------------|
D--14-12-10-10-9-4-------------14\-------------------|
A--14-12-10-10-9-4-------------14\-------------------|
E--12-10--8--8-7-2-3-2-3-2-0-0-12\-------------------|

Verse:
E----------------------------------------------------|
B----------------------------------------------------|
G----------------------------------------------------|
D----------------------------------------------------|
A----------------------------------------------------|
E-0-0-0-0-3-3-3-3-6-6-6-6-2-2-2-2h3p2----------------|

E----------------------------------------------------|
B----------------------------------------------------|
G----------------------------------------------------|
D-------------X-9--7--5--4--2------------------------|
A-------------X-9--7--5--4--2------------------------|
E-0-0-0-0-3-3-X-7--5--3--2--0------------------------|

E----------------------------------------------------|
B----------------------------------------------------|
G----------------------------------------------------|
D----------------------------------------------------|
A----------------------------------------------------|
E-0-0-0-3-3-3-3-7^--7^--7^--x-19\--------------------|

E----------------------------------------------------|
B----------------------------------------------------|
G----------------------------------------------------|
D-------------X-9--7--5--4---------------------------|
A-------------X-9--7--5--4---------------------------|
E-0-0-0-0-3-3-X-7--5--3--2---------------------------|

Bridge:
E----------------------------------------------------|
B----------------------------------------------------|
G----------------------------------------------------|
D-2--2-2-2-2--2-2-2-2-4--5--5-5-5-5---5--------------|
A-2--2-2-2-2--2-2-2-2-4--5--5-5-5-5---5-------5-7----|
E-0--0-0-0-0--0-0-0-0-2--3--3-3-3-3---3---5-7--------|
 P.M.-----|   |------|     |-----|
  
E----------------------------------------------------|
B----------------------------------------------------|
G----------------------------------------------------|
D-2--2-2-2-2--2-2-2-2-5--7--7-7-7-7------------------|
A-2--2-2-2-2--2-2-2-2-5--7--7-7-7-7-----------5h6h7--|
E-0--0-0-0-0--0-0-0-0-3--5--5-5-5-5-------5-7--------|
 P.M.-----|   |------|     |-----|

E----------------------------------------------------|
B----------------------------------------------------|
G----------------------------------------------------|
D-2--2-2-2-2--2-2-2-2-4--5--5-5-5-5---5--------------|
A-2--2-2-2-2--2-2-2-2-4--5--5-5-5-5---5-------5-7----|
E-0--0-0-0-0--0-0-0-0-2--3--3-3-3-3---3---5-7--------|
 P.M.-----|   |------|     |-----|
  
E----------------------------------------------------|
B----------------------------------------------------|
G----------------------------------------------------|
D-2--2-2-2-2--2-2-2-2-5--7--7-7-7-7------------------|
A-2--2-2-2-2--2-2-2-2-5--7--7-7-7-7-----------5h6h7--|
E-0--0-0-0-0--0-0-0-0-3--5--5-5-5-5-------5-7--------|
 P.M.-----|   |------|     |-----|

E----------------------------------------------------|
B----------------------------------------------------|
G----------------------------------------------------|
D--2-------------------------------------------------|
A--2-------------------------------------------------|
E--0-------------------------------------------------|
Hold for 2 full Measures


There's more, but I'm bored with this.  I'll finish later.

E----------------------------------------------------|
B----------------------------------------------------|
G----------------------------------------------------|
D----------------------------------------------------|
A----------------------------------------------------|
E----------------------------------------------------|

E----------------------------------------------------|
B----------------------------------------------------|
G----------------------------------------------------|
D----------------------------------------------------|
A----------------------------------------------------|
E----------------------------------------------------|

E----------------------------------------------------|
B----------------------------------------------------|
G----------------------------------------------------|
D----------------------------------------------------|
A----------------------------------------------------|
E----------------------------------------------------|


E----------------------------------------------------|
B----------------------------------------------------|
G----------------------------------------------------|
D----------------------------------------------------|
A----------------------------------------------------|
E----------------------------------------------------|


E----------------------------------------------------|
B----------------------------------------------------|
G----------------------------------------------------|
D----------------------------------------------------|
A----------------------------------------------------|
E----------------------------------------------------|


E----------------------------------------------------|
B----------------------------------------------------|
G----------------------------------------------------|
D----------------------------------------------------|
A----------------------------------------------------|
E----------------------------------------------------|


E----------------------------------------------------|
B----------------------------------------------------|
G----------------------------------------------------|
D----------------------------------------------------|
A----------------------------------------------------|
E----------------------------------------------------|
            
Submit corrections

comments powered by Disqus
↑ Back to top | Unsigned Tabs for Jaundiced Eyes - No Rest For The Restles. Lyrics for acoustic guitar and electric guitar. 1 Tablatures and chords are parodies/interpretations of the original songs. You may use it for private study, scholarship, research or language learning purposes only