» » »

Unsigned, Jam Session Bass tabs (ver.1)

Artists:  A B C D E F G H I J K L M N O P Q R S T U V W X Y Z # 

Jam Session Bass tabs (ver.1)

Unsigned Tabs
 Rating:
4/5 (4 votes)
Jam Session lessons Tabs too difficult? Try these video lessons and learn fast
1
                {PART I}

INTRO (Includes all of Riff 1 & 2)

Riff 1a(4x)
G|----------------|
D|----------------|
A|-0-0-0-0-0-0-0-0|
E|----------------|

Riff 1b(2x)                       (2x)
G|------------------------|----------------|
D|-10-10-10-10-10-10-10-10|-0-0-0-0-0-0-0-0|
A|------------------------|----------------|
E|------------------------|----------------|

PLAY Riff 1a(4x)

Riff 1c(2x)
G|------------------------|----------------|
D|-12-12-12-12-12-12-12-12|-0-0-0-0-0-0-0-0|
A|------------------------|----------------|
E|------------------------|----------------|

PLAY Riff 1a(4x)

Riff 2a
G|----------------------------------------|
D|-10-10-10-10-9-9-9-9-12-12-12-12-7-7-7-7|
A|----------------------------------------|
E|----------------------------------------|

Riff 2b
G|--------------------------------------------|
D|-10-10-10-10-12-12-12-12-9-9-9-9-10-10-10-10|
A|--------------------------------------------|
E|--------------------------------------------|

Riff 2c
G|----------------------------------------|
D|-10-10-10-10-9-9-9-9-12-12-12-12-7-7-7-7|
A|----------------------------------------|
E|----------------------------------------|

Riff 2d
G|----------------------------------------|
D|-10-10-10-10-12-12-12-12-9-9-9-9-7-7-7-7|
A|----------------------------------------|
E|----------------------------------------|



Verse(4x)
G|-------------------------12-10-9---------------|
D|-------------12-10-10-10---------10-12-12-12-12|
A|-12-12-12-12-----------------------------------|
E|-----------------------------------------------|


Chorus(2x)
G|-----------------------12-10------------------|
D|-------------12-10-9-9-------12-10-15-12-12-12|
A|-12-12-10-10----------------------------------|
E|----------------------------------------------|

G|-----------------------12-10----------12-15-12|
D|-------------12-10-9-9-------12-10-15---------|
A|-12-12-10-10----------------------------------|
E|----------------------------------------------|

(REPEAT VERSE & CHORUS)


Riff 3a
G|-14-14-14-14-14-14-14-14-12-12-12-12-12-12-12-12|
D|-0--0--0--0--0--0--0--0--0--0--0--0--0--0--0--0-|
A|------------------------------------------------|
E|------------------------------------------------|

G|-15-15-15-15-15-15-15-15-10-10-10-10-10-10-10-10|
D|-0--0--0--0--0--0--0--0--0--0--0--0--0--0--0--0-|
A|------------------------------------------------|
E|------------------------------------------------|


Riff 3b
G|-14-14-14-14-14-14-14-14-15-15-15-15-15-15-15-15|
D|-0--0--0--0--0--0--0--0--0--0--0--0--0--0--0--0-|
A|------------------------------------------------|
E|------------------------------------------------|

G|-12-12-12-12-12-12-12-12-14-14-14-14-14-14-14-14|
D|-0--0--0--0--0--0--0--0--0----------------------|
A|------------------------------------------------|
E|------------------------------------------------|


Riff 3c
G|-14-14-14-14-14-14-14-14-12-12-12-12-12-12-12-12|
D|------------------------------------------------|
A|------------------------------------------------|
E|------------------------------------------------|

G|-15-15-15-15-15-15-15-15-10-10-10-10-10-10-10-10|
D|------------------------------------------------|
A|------------------------------------------------|
E|------------------------------------------------|


Riff 3d
G|-14-14-14-14-14-14-14-14-15-15-15-15-15-15-15-15|
D|------------------------------------------------|
A|------------------------------------------------|
E|------------------------------------------------|

G|-12-12-12-12-12-12-12-12-7-7-7-7-7-7-7-7-|
D|-----------------------------------------|
A|-----------------------------------------|
E|-----------------------------------------|


              {PART II}

Riff 4a
G|(7)-----7-7-----7-7-----7-7-5---5-7-| 4x
D|----0-0-----0-0-----0-0-------7-----|
A|------------------------------------|
E|------------------------------------|

Break
G|-----------------|
D|-0-0-0-0-0-0-0-0-|
A|-----------------|
E|-----------------|

Riff 4b
G|-7-7-5-----------| 4x
D|-------7-5-3-5-0-|
A|-----------------|
E|-----------------|

Riff 4c
G|-7-7-5-------------------------------------------| 4x
D|-------7-5-3-5-0-0-0-0-0-5-5-5-5---------7-7-7-7-|
A|---------------------------------3-3-3-3---------|
E|-------------------------------------------------|

G|-------------------------------------------------------|
D|Play All of Riff 4 Again without the first 2 open notes|
A|-------------------------------------------------------|
E|-------------------------------------------------------|
            
Submit corrections

comments powered by Disqus
↑ Back to top | Unsigned Bass for Jam Session. Lyrics for acoustic guitar and electric guitar. 1 Tablatures and chords are parodies/interpretations of the original songs. You may use it for private study, scholarship, research or language learning purposes only