» » »

Isolated Soul - This Pain Inside Tabs (ver.1)

Artists:  A B C D E F G H I J K L M N O P Q R S T U V W X Y Z # 

Isolated Soul - This Pain Inside Tabs (ver.1)

Unsigned
Rating:
0/5 (0 votes)

Tabs too difficult? Try these video lessons and learn fast.
                e--------------|--------------|--------------|--------------|
B--------------|--------------|--------------|--------------|
G--------------|--------------|--------------|--------------|
D--------------|--------------|--------------|--------------|
A---------xxxx-|---------xxxx-|---------xxxx-|--------------|
E-0-11-00-xxxx-|-0-11-00-xxxx-|-0-11-00-xxxx-|-0-11-0-1-4---|
PM. Throughout
 
 
e--------------|--------------|--------------|--------------|
B--------------|--------------|--------------|--------------|
G--------------|--------------|--------------|--------------|
D--------------|--------------|--------------|--------------|
A-2-33-22-xxxx-|-2-33-22-xxxx-|-2-33-22-xxxx-|-2-33-2-3-6---|
E-0-11-00-xxxx-|-0-11-00-xxxx-|-0-11-00-xxxx-|-0-11-0-1-4---|
PM. throughout
 
e--------------|--------------|--------------|--------------|
B--------------|--------------|--------------|--------------|
G--------------|--------------|--------------|--------------|
D--------------|--------------|--------------|--------------|
A-2-33-22-xxxx-|-2-33-22-xxxx-|-2-33-22-xxxx-|-2-33-2-3-6---|
E-0-11-00-xxxx-|-0-11-00-xxxx-|-0-11-00-xxxx-|-0-11-0-1-4---|
NO PM!
 
e--------------|--------------|--------------|--------------|
B--------------|--------------|--------------|--------------|
G--------------|--------------|--------------|--------------|
D--------------|--------------|--------------|--------------|
A-2-33-22-2222-|-2-33-22-2222-|-2-33-22-2222-|-2-33-2-3-6---|
E-0-11-00-0000-|-0-11-00-0000-|-0-11-00-0000-|-0-11-0-1-4---|
          PM---|         PM---|
 
(Drummer kicks in loud)

Riff A
e----------------|----------------|----------------|----------------|
B----------------|----------------|----------------|----------------|
G----------------|----------------|----------------|----------------|
D----------------|----------------|----------------|----------------|
A-2-3-3-2-3-6----|-2-3-3-2-3-6----|-2-3-3-2-3-6----|-2-3-3-2-3-6----|
E-0-1-1-0-1-4----|-0-1-1-0-1-4----|-0-1-1-0-1-4----|-0-1-1-0-1-4----|
No PM!

e----------------|----------------|----------------|----------------|
B----------------|----------------|----------------|----------------|
G----------------|----------------|----------------|----------------|
D----------------|----------------|----------------|----------------|
A2222322222336666|2222322222336666|2222322222336666|2222322222336666|
E0000100000114444|0000100000114444|0000100000114444|0000100000114444|
PM--->---------------->---------------->---------------->-----------|

Riff B
e----------------|----------------|
B----------------|----------------|
G----------------|----------------|
D----------------|----------------|
A-2-3-3-2-3-6----|-----------6-66-|
E-0-1-1-0-1-4----|-----------4-44-|
NO PM!      Hold-------------|

Verse:

Riff C
e----------------|----------------|----------------|----------------|
B----------------|----------------|----------------|----------------|
G----------------|----------------|----------------|----------------|
D----------------|----------------|----------------|----------------|
A-2-2232232--7---|-2-2232232--7---|-2-2232232--7---|-2-2232232-23-6-|
E-0-0010010----7-|-0-0010010----7-|-0-0010010----7-|-0-0010010-01-4-|
PM--------| Harm. PM-------| Harm. PM-------| Harm. PM----------|
play once more, then play 2 more times without palm muting.

Prechorus:
e----------------|----------------|----------------|----------------|
B----------------|----------------|----------------|----------------|
G----------------|----------------|----------------|----------------|
D3333333333333333|22222222-3222222|3333333333333333|9999999999999955|
A3333333333333333|22222222-3222222|3333333333333333|9999999999999955|
E1111111111111111|00000000-1000000|1111111111111111|7777777777777733|

Chorus:

e----------------|----------------|----------------|----------------|
B----------------|----------------|----------------|----------------|
G----------------|----------------|----------------|----------------|
D--2---5---------|-3---2----------|--2---5---------|-3---2----------|
A--2---5---------|-3---2----------|--2---5---------|-3---2----------|
E--0---3---------|-1---0----------|--0---3---------|-1---0----------|

e----------------|----------------|----------------|-
B----------------|----------------|----------------|-JUMP INTO RIFF A
G----------------|----------------|----------------|-ONCE THEN RIFF B 
D--2---5---------|-3---2----------|-2-5------3-----|-ONCE THEN THE
A--2---5---------|-3---2----------|-2-5-2222-3-2222|-VERSE
E--0---3---------|-1---0----------|-0-3-0000-1-0000|-
                                        PM-|   PM-|
The song goes Intro, Verse, PreChorus, Chorus, Verse, PreChorus, Chorus
so far. I know its not finished. I need a bridge. I dont know if there
should be a solo. But Ill work on that over vacation. Pe@ce!
            
Tabs too difficult? Try these video lessons and learn fast.




comments powered by Disqus
↑ Back to top | Tablatures and chords are parodies/interpretations of the original songs. You may use it for private study, scholarship, research or language learning purposes only