» » »

Into The Woods With Juliet-If You Go Tabs (ver.1)

Artists:  A B C D E F G H I J K L M N O P Q R S T U V W X Y Z # 

Into The Woods With Juliet-If You Go Tabs (ver.1)

Unsigned
Rating:
0/5 (0 votes)

Hard to play? Try these video lessons and learn fast.
                Tuning (D, G, C, F, A, D)
P.M= ….

Intro/Verse Guitar 1
D------------------------------------------------------------------------------
A------------------------------------------------------------------------------
F-------4-----------4-----------4-4---------------5-------5------5-5-----------
C-------2-----------2-----------2-2---------------3-------3------3-3-----------
G--22-----------22---------22----------------33-----33------33-----------------
D------------------------------------------------------------------------------
  ..           ..          ..                ..     ..      ..

Chorus:
D----------------------------------------------------------------------------
A----------------------------------------------------------------------------
F---5-5-5-5-5-5-5---9-9-9-9-9-9-9--------------------5-5-5-5-5-5-5-----------
C---5-5-5-5-5-5-5---9-9-9-9-9-9-9----5-5-5-5-5-5-5---5-5-5-5-5-5-5---9-9-9-9-9-9-9-
G---3-3-3-3-3-3-3---7-7-7-7-7-7-7----3-3-3-3-3-5-5---7-7-7-7-7-7-7---7-7-7-7-7-7-7-
D------------------------------------3-3-3-3-3-3-3-------------------7-7-7-7-7-7-7-
            
Hard to play? Try these video lessons and learn fast. | Correct




comments powered by Disqus
↑ Back to top | Tablatures and chords are parodies/interpretations of the original songs. You may use it for private study, scholarship, research or language learning purposes only