» » »

Unsigned, Intention To Burn - Devil On The Run Bass tabs (ver.1)

Artists:  A B C D E F G H I J K L M N O P Q R S T U V W X Y Z # 

Intention To Burn - Devil On The Run Bass tabs (ver.1)

Unsigned Tabs
 Rating:
4/5 (4 votes)
Intention To Burn - Devil On The Run lessons Tabs too difficult? Try these video lessons and learn fast
                GENRE: ska-core

Note: THIS IS CORRECT! I should know...

INTRO					     x2
G |------|         |------|         |------|         |----------------|
D |------|         |------|         |------|         |----------------|
A |--00--|  pause  |------|  pause  |------|  pause  |--3-3-3 / 5--5--|
E |------|         |--33--|         |--11--|         |----------------|
					     x2
G |----------------|----------------|----------------|----------------|
D |----------------|----------------|----------------|----------------|
A |--00--3--2-3-2--|------3--2-3-2--|------3--2-3-2--|--3-3-3 / 5--5--|
E |----------------|--33------------|--11------------|----------------|

PRE-VERSE					     x2
G |----------------|----------------|----------------|----------------|
D |----------------|----------------|----------------|----------------|
A |----------------|---------5---3--|----------------|---------5---3--|
E |--5x5-5--1x1-1--|--3x3-3---------|--5x5-5--1x1-1--|--3x3-3---------|

G |----------------|----------------|----------------|----------------|
D |--------5h75----|--------1h31----|--------3h53----|--5h3---5h3-----|
A |-----5h7----h7--|-----1h3----h3--|-----3h5----h5--|-----5-4---5-4--|
E |--5h7-----------|--1h3-----------|--3h5-----------|----------------|

G |-------------------------------------------------------------------|
D |---------5h7-5-----------1h3-1-----------3h5-3---5-3-----5-3-------|
A |------5h7------7------1h3------3------3h5------------5-4-----5-4---|
E |---5h7-------------1h3-------------3h5-----------------------------|

G |----------------|----------------|----------------|----------------|
D |----------------|----------------|----------------|----------------|
A |----------------|----------------|--3----------3--|--2---3---2-----|
E |--5----------5--|--1-----------1-|----------------|-------------3--|

VERSE					     x2
G |----------------|----------------|----------------|----------------|
D |----------------|----------------|----------------|----------------|
A |--000000000000--|----------------|--000000000000--|--------333333--|
E |----------------|--111111111111--|----------------|--333333--------|
					     x2
G |----------------|----------------|----------------|----------------|
D |----------------|----------------|----------------|----------------|
A |--0--0--0-------|----------------|--0--0--0-------|---------3---3--|
E |----------------|--1--1--1-------|----------------|--3---3---------|

CHORUS
G |----------------|----------------|----------------|----------------|
D |----------------|----------------|----------------|----------------|
A |----------------|--3x3-3---------|--0x0-0--3x3-3--|----------------|
E |--5x5-5--1x1-1--|---------3x3-3--|----------------|--3x3-3--1x1-1--|

  |----------------|
  |----------------|
  |--0---2---3-----|
  |----------------|

POST-CHORUS
G |----------------|----------------|----------------|----------------|
D |----------------|----------------|----------------|----------------|
A |--00--3--2-3-2--|----------------|--00--3--2-3-2--|----------------|
E |----------------|--3-------------|----------------|--3--1----------|

G |----------------|----------------|----------------|----------------|
D |----------------|----------------|----------------|----------------|
A |--00--3--2-3-2--|----------------|--00--3--2-3-2--|--3-3-3 / 5--5--|
E |----------------|--3-------------|----------------|----------------|
            
Submit corrections

comments powered by Disqus
↑ Back to top | Unsigned Bass for Intention To Burn - Devil On The Run. Lyrics for acoustic guitar and electric guitar. Tablatures and chords are parodies/interpretations of the original songs. You may use it for private study, scholarship, research or language learning purposes only