» » »

Inside Out-Guilt Tabs (ver.1)

Artists:  A B C D E F G H I J K L M N O P Q R S T U V W X Y Z # 

Inside Out-Guilt Tabs (ver.1)

Unsigned
Rating:
0/5 (0 votes)

Hard to play? Try these video lessons and learn fast.
                Inside Out
			   Guilt
                                    by Tony Lawrence
			   INTRO
	E-----------------------------------------------------------------------
	B-----------------------------------------------------------------------
	G------------------555---------------------------------------------
	D-77777777777-2222-555--55555----times 4---------------------------
	A-77777777777-2222-333--55555--------------------------------------
	E-55555555555-0000------33333--------------------------------------
			VERSE
	E-----------------------------------------------------------------------
	B---------------------------------------play 2 times then palm mute-----
	G------------3333----------------------------------------------------
	D-7777777777-3333-333-2222------------------------------------------
	A-7777777777-1111-333-2222------------------------------------------
	E-5555555555------111-0000------------------------------------------
			CHORUS
	E----------------------------------------------------------------------
	B-----------------------------------------------------------------------
	G------------------555-----------------------------------------------
	D-77777777777-2222-555--5-0-5-----------------------------------------
	A-77777777777-2222-333--5-0-5-----------------------------------------
	E-55555555555-0000------3-0-3----------------------------------------
			OUTRO
	E------------------------------------------------
	B------------------------------------------------
	G------------------------------------------------
	D-77777777777~-3---------------------------------
	A-77777777777~-3---------------------------------
	E-55555555555~-1---------------------------------
            
Hard to play? Try these video lessons and learn fast. | Correct




comments powered by Disqus
↑ Back to top | Tablatures and chords are parodies/interpretations of the original songs. You may use it for private study, scholarship, research or language learning purposes only