» » »

Unsigned, Insert Name - Deaf Tabs (ver.1)

Artists:  A B C D E F G H I J K L M N O P Q R S T U V W X Y Z # 

Insert Name - Deaf Tabs (ver.1)

Unsigned Tabs
Rating:
0/5 (0 votes)
Hard to play? Try these video lessons and learn fast.
                "DEAF"

music by Anna Marshall 

Tuned down to E.
3/4 beats 2 a bar.

intro:
part1:
E|-------------------|
B|-------------------|
G|-------------------|  X4
D|-------------------|
A|-4-4-4-2--4-4------|
E|--------------44-5-|

part2:
E|-------------------|
B|-------------------|
G|-------------------|
D|-6-6-6-4--6-6------|  X4 
A|-4-4-4-2--4-4-66-7-|
E|--------------44-5-|

verse:
is the same as intro part 2, but muted.

chorus:
E|-----------------------------------|
B|-----------------------------------|
G|-----------------------------------|
D|-6-6-6-4-6-6-----------4-44-4-4/6-2|  X2
A|-4-4-4-2-4-4-7-6-4-4-4-2-22-2-2/4-0|
E|-------------5-4-2-2-2-------------|

on second time:
                         <slowing down>
E|-------------------------------------|
B|-------------------------------------|
G|-------------------------------------|
D|-6-6-6-4-6-6-----------4-44-4-4/6-2--|
A|-4-4-4-2-4-4-7-6-4-4-4-2-22-2-2/4-0-2|
E|-------------5-4-2-2-2--------------0|
            

comments powered by Disqus
↑ Back to top | Unsigned Tabs for Insert Name - Deaf. Lyrics for acoustic guitar and electric guitar. Tablatures and chords are parodies/interpretations of the original songs. You may use it for private study, scholarship, research or language learning purposes only