» » »

Ingrown - All I Wanna Do Bass tabs (ver.1)

Artists:  A B C D E F G H I J K L M N O P Q R S T U V W X Y Z # 

Ingrown - All I Wanna Do Bass tabs (ver.1)

Unsigned
Rating:
0/5 (0 votes)

Hard to play? Try these video lessons and learn fast.
                Bassist:	Matt Carlisle


Guitar intro for two measures

Intro x2
------------------------------------------------------
------------------------------------------------------
5-5-5-5-5--5--7-7-7-7-7--7--3-3-3-3-3--3--5-5-5-5-5--5
------------------------------------------------------

Verse x2
----------------------------------------------
----------------------------------------------
5--5--5--5--7--7--7--7--3--3--3--3--5--5--5--5
----------------------------------------------

Chorus x1
5-5-5-5-5-5-5-5-7-7-7-7-7-7-7-7-3-3-3-3-3-3-3-3-5-5-5-5-5-5-5-5

----------------------------------
----------------------------------
5-5-5-5-5-5-5-5-7-7-7-7-7-7-7-7-3~
----------------------------------

Bridge x2
------------------------------------------------------
------------------------------------------------------
5-5-5-5-5--5--7-7-7-7-7--7--3-3-3-3-3--3--5-5-5-5-5--5
------------------------------------------------------

Verse x2

Chorus x1

Bridge x2

Verse x2

Chorus x3

At the very end, after “siiiiide”, hit  --------- but mute once you bend it.
			  ---------
			  --5b----
		               ---------
            
Hard to play? Try these video lessons and learn fast. | Correct




comments powered by Disqus
↑ Back to top | Tablatures and chords are parodies/interpretations of the original songs. You may use it for private study, scholarship, research or language learning purposes only